Silvio Rodríguez - Sólo El Amor Guitar Chords

Silvio Rodríguez

cantautor, latin alternative, nica, nueva cancion

Song versions: 1 2 3 4
Chords: C#, A#, G#, B, A#*, G*, F#m7, E*, F, C/SOL, D, E, G, Dm, Bm, C, A
Nota: La introducción utiliza una secuencia de acordes muy bonita.
      Si mi oido no me falla, estos son.

Intro:

    C# A# G# B Red A#* G* F#m7 E* F C/SOL
MI--9---6---4----2--10--6----3----2-----0---1------0-1-3---3-1-0----
B--9---6---4----4--11--7----4----5-----5---1-----------------------
SOL-10--7---5----4--11--7----4----2-----7---2----0-------0----------
D--11--8---6----4--0-------------2-----0---3-----------------------
LA--11--8---6----2----------------2-----7---3--3--------------------
E--9---6---4-----------6----3----2-----0---1-----------------------


 C/SOL                              F
 Debes amar la arcilla que hacen tus manos
 G                            Dm
 debes amar su arena hasta la locura
      F          DO7/DO#             Bm
 y si no, no la emprendas que será en vano
 G           F               C/SOL
 sólo el amor alumbra lo que perdura
 G             F                   C/SOL
 sólo el amor convierte en milagro el barro.

    G           F            C...
MI--3-----3---3---1-----1---1---0---0-1-3-0-1-3-5----
B----3-3---3---3---1-1---1---1---1------------------
G--------------------------------------------------
D---------------------------------------------------
LA------------------------------3---------3----------
E--3-------------1----------------------------------

Debes amar el tiempo de los intentos
debes amar la hora que nunca brilla

y si no, no pretendas tocar lo cierto

:/sólo el amor engendra la maravilla

sólo el amor consigue encender lo muerto/:


    G           F            C...
MI--3-----3---3---1-----1---1---0---0-1-3-0-1-3-5----
B----3-3---3---3---1-1---1---1---1------------------
G--------------------------------------------------
D---------------------------------------------------
LA------------------------------3---------3----------
E--3-------------1----------------------------------

    A, A...

More chords by Silvio Rodríguez: