Howard Shore - Far Over The Misty Mountains Cold Guitar Chords

Howard Shore

canadian classical, canadian soundtrack, scorecore, soundtrack

Song versions: 1 2 3 4 5 6 7
Chords: Gm, Bb, Dm, Em, G, Bm, F, Am
From the 2011 teaser trailer :)

=============================================
CHORDS
=============================================
     Gm
Far over the Misty Mountains cold,
            Bb               Dm
To dungeons deep and caverns old ...
               Gm
The pines were roaring on the heights,
             Bb             Dm
The wind was moaning in the night,
             Bb              Dm
The fire was red, it flaming spread,
                                   Gm
The trees like torches blazed with light.

=============================================
CAPO 3RD FRET
=============================================

     Em
Far over the Misty Mountains cold,
            G                Bm
To dungeons deep and caverns old
               Em
The pines were roaring on the heights,
             G              Bm
The wind was moaning in the night,
             G               Bm
The fire was red, it flaming spread,
                                   Em
The trees like torches blazed with light.

=============================================
CAPO 5TH FRET
=============================================

     Dm
Far over the Misty Mountains cold,
            F                Am
To dungeons deep and caverns old
               Dm
The pines were roaring on the heights,
             F              Am
The wind was moaning in the night,
             F               Am
The fire was red, it flaming spread,
                                   Dm
The trees like torches blazed with light.

=============================================
THE BASIC TUNE
=============================================

                            Gm
    1  &  2  &  3  &  4  &  1  &  2  &  3  &  4  &
e|------------------------------------------------|
B|------------------------------------------------|
G|--------------------------0-----------------2---|
D|--------------0-----3---------------------------|
A|------------------------------------------------|
E|------------------------------------------------|
               FAR   O-    VER               THE

    1  &  2  &  3  &  4  &  1  &  2  &  3  &  4  &
e|------------------------------------------------|
B|--------1---------------------------------------|
G|--3--------3--2---------------------------------|
D|--------------------3-----5---------------------|
A|------------------------------------------------|
E|------------------------------------------------|
   MIS-  T- Y  MOUN- TAINS COLD

                            Bb
    1  &  2  &  3  &  4  &  1  &  2  &  3  &  4  &
e|------------------------------------------------|
B|------------------------------------------------|
G|--------------0-----2-----3---------------------|
D|--------0---------------------------------------|
A|------------------------------------------------|
E|------------------------------------------------|
         IN    DUN-  GEONS DEEP

                            Dm
    1  &  2  &  3  &  4  &  1  &  2  &  3  &  4  &
e|------------------------------------------------|
B|--------------1---------------------------------|
G|-------3------------3--0--2---------------------|
D|------------------------------------------------|
A|------------------------------------------------|
E|------------------------------------------------|
        AND    CAV-  E-RNS OLD

                            Gm
    1  &  2  &  3  &  4  &  1  &  2  &  3  &  4  &
e|------------------------------------------------|
B|------------------------------------------------|
G|--------------------------0-----0---------------|
D|--------0-----0-----3---------------------------|
A|------------------------------------------------|
E|------------------------------------------------|
         THE   PINES WERE  ROAR- ING

    1  &  2  &  3  &  4  &  1  &  2  &  3  &  4  &
e|------------------------------------------------|
B|--------1---------------------------------------|
G|--3--------3--2---------------------------------|
D|--------------------3-----5---------------------|
A|------------------------------------------------|
E|------------------------------------------------|
   O-          N     THE   HEIGHTS

                            Bb
    1  &  2  &  3  &  4  &  1  &  2  &  3  &  4  &
e|------------------------------------------------|
B|------------------------------------------------|
G|--------------0-----2-----3-----3---------------|
D|--------3---------------------------------------|
A|------------------------------------------------|
E|------------------------------------------------|
         THE   WIND  WAS   MOAN- ING

                            Dm
    1  &  2  &  3  &  4  &  1  &  2  &  3  &  4  &
e|------------------------------------------------|
B|--------1---------------------------------------|
G|--3--------3--2-----0-----2---------------------|
D|------------------------------------------------|
A|------------------------------------------------|
E|------------------------------------------------|
   I-          N     THE   NIGHT

                            Bb
    1  &  2  &  3  &  4  &  1  &  2  &  3  &  4  &
e|------------------------------------------------|
B|--------------1-----------3---------------------|
G|--------3-----------2---------------------------|
D|------------------------------------------------|
A|------------------------------------------------|
E|------------------------------------------------|
         THE   FIRE  WAS   RED

                      Dm
    1  &  2  &  3  &  4  &  1  &  2  &  3  &  4  &
e|------------------------------------------------|
B|--1---------------------------------------------|
G|--------3---------------------------------------|
D|-----------------0--2---------------------------|
A|------------------------------------------------|
E|------------------------------------------------|
   IT    FLAM-   ING SPREAD

    1  &  2  &  3  &  4  &  1  &  2  &  3  &  4  &
e|------------------------------------------------|
B|------------------------------------------------|
G|--------------------0-----0-----------2---------|
D|--0-----0-----3---------------------------------|
A|------------------------------------------------|
E|------------------------------------------------|
   THE   TREES LIKE  TOUR- CHES        BLAZED

          Gm
    1  &  2  &  3  &  4  &  1  &  2  &  3  &  4  &
e|------------------------------------------------|
B|------------------------------------------------|
G|--------0---------------------------------------|
D|-----3------------------------------------------|
A|------------------------------------------------|
E|------------------------------------------------|
     WITH LIGHT

More chords by Howard Shore: