Houkago Tea Time - Ichiban Ippai Guitar Chords

Chords: A, Ab, Amaj, Am7, A/Gb, B, Bb5, B5, B7add11, C, C#m, D, Dsus2, A/D, E, Esus2, B/E, Em, Emaj9, F#7, G7, Gmaj
Chords Used

 A        Ab       Amaj     Am7      A/Gb     B        Bb5      B5       B7add11  C        C#m      D        
|--x--|  |--x--|  |--5--|  |--x--|  |--x--|  |--x--|  |--x--|  |--x--|  |--x--|  |--x--|  |--x--|  |--x--|  
|--2--|  |--x--|  |--5--|  |--5--|  |--2--|  |--4--|  |--x--|  |--x--|  |--4--|  |--x--|  |--x--|  |--7--|  
|--2--|  |--x--|  |--5--|  |--5--|  |--2--|  |--4--|  |--x--|  |--x--|  |--4--|  |--5--|  |--6--|  |--7--|  
|--2--|  |--6--|  |--7--|  |--5--|  |--2--|  |--4--|  |--8--|  |--9--|  |--4--|  |--5--|  |--6--|  |--7--|  
|--0--|  |--6--|  |--7--|  |--0--|  |--x--|  |--2--|  |--8--|  |--9--|  |--0--|  |--3--|  |--4--|  |--5--|  
|--x--|  |--4--|  |--5--|  |--x--|  |--2--|  |--x--|  |--6--|  |--7--|  |--x--|  |--x--|  |--x--|  |--x--|  

 Dsus2    A/D      E        Esus2    B/E      Em       Emaj9    F#7      G7       Gmaj
|--5--|  |--5--|  |--x--|  |--7--|  |--7--|  |--x--|  |--x--|  |--x--|  |--1--|  |--x--|  
|--5--|  |--5--|  |--x--|  |--7--|  |--7--|  |--x--|  |--4--|  |--x--|  |--0--|  |--x--|  
|--5--|  |--6--|  |--x--|  |--7--|  |--6--|  |--x--|  |--4--|  |--x--|  |--0--|  |--x--|  
|--7--|  |--7--|  |--2--|  |--9--|  |--9--|  |--x--|  |--4--|  |--4--|  |--0--|  |--5--|  
|--5--|  |--5--|  |--2--|  |--7--|  |--7--|  |--2--|  |--x--|  |--4--|  |--2--|  |--5--|  
|--x--|  |--x--|  |--x--|  |--x--|  |--x--|  |--0--|  |--4--|  |--2--|  |--3--|  |--3--|  


[Intro]

Esus2      B/E     Dsus2      A/D 
Esus2      B/E     Dsus2      A/D 


[Verse]

E      B             A          Am7     D
Ohayou pika pika asahi zenshin ni kin-iro SUPOTTORAITO
E      B             A       Am7       D
Ufu ufu HAATO no atari ii koto arisou na yokan


[Pre-Chorus]

A      B7add11                   Emaj9         G7
Kokoro nan senchi? (Shiritai na) donna KATACHI shiteru no?? 
F#7                            B        
Wakannai demo "Daisuki" ga fureru (Attakai basho) basho (Seikai!)


[Chorus]

       Amaj                  Emaj9  
Dakara ichiban wo sagashi ni deai ni ikou yo (RETTSU GOO)
A/Gb   B   Em        E
Gakkou・oto・uta・o-cha・okashi
     Amaj               Emaj9
Hyakukome no ichiban mo sore wa ichiban de
A/Gb  Emaj9  A/Gb  Emaj9            Am7   D    Am7     D     
Mune ippai   onaka ippai (Shiawase) mitasarete isshoni ne...nikkori


[Interlude]

Esus2      B/E     Dsus2      A/D
Ichiban wa hitotsu ja nai
Esus2      B/E     Dsus2      A/D
Esus2      B/E     Dsus2      A/D 
Esus2      B/E     Dsus2      A/D 


[Verse] 

                                   Am7     D
Oyasumi sayonara kyou hoshizora wa aiiro BURANKETTO
E      B             A          Am7     D
Kyun kyun HAATO no oku ga honnori setsunai kedo


[Pre-Chorus]

A      B7add11                   Emaj9         G7
Kinou no asabuta (Itamigoto) itsunomani kieta you ni (Chichin pui pui)
F#7                          B  
Massara na hajimari wa ENDORESU (Donto koi da mon) da mon (KAMON!)


[Chorus]

       Amaj                  Emaj9  
Asu mo ichiban wo zenryoku de dakishimetekou yo (GYUTTO)
A/Gb   B   Em        E
Hito・inu・kaze・hana・komichi
     Amaj               Emaj9
Senkome no ichiban mo yappa ichiban de
A/Gb  Emaj9  A/Gb  Emaj9            Am7   D    Am7     D  
Mune manpai yume ni kanpai (Ganbarou) oikakete koronde mo heiki


[Bridge 1]

Esus2      B/E     Dsus2      A/D
Keep on Keep on Singing Songs
Esus2      B/E
Keep on Keep on


[Bridge 2]

N.C.
Saikou tte omou "Shunkan" "Ima" wo kanjiru, tsukuru tame
                                   B5  Amaj  Ab  F#7
Minna umareta ne!? HAATO wo motte!!


[Instrumental]

A  B  C  C#m 
Amaj  Dsus2  Gmaj B
Amaj  Bb5  B5 


[Chorus]

       Amaj                  Emaj9  
Itsumo ICHIBAN is No.1 We are all No.1 (YAHHO-)
A/Gb      B   Em        E
Tanoshii ni isshokenmei da yo
     Amaj               Emaj9
Hyakuokuko no ichiban zenbu takaramono
A/Gb  Emaj9  A/Gb  Emaj9            Am7   D    Am7   D  
Deatte daisuki ni natte (Shinjite) dakishimete tebanashite
 Amaj                  Emaj9 
Aa (See you, Good-bye) mata deatte (Hello) 
A/Gb      B       Em        E
shiawase tte sono kurikaeshi
    Amaj              Emaj9
Nankome no ichiban mo kawari nante nakute
A/Gb  Emaj9  A/Gb  Emaj9          Am7   D    Am7   D  
Mune ippai onaka ippai (Arigatou) mitasarete zutto zutto...nikkori


[Instrumental]

Esus2      B/E     Dsus2      A/D   
Esus2      B/E     Dsus2      A/D   
Esus2      B/E     Dsus2      A/D   


[Outro]

Mugendai da yo ichiban no PAWAA
Esus2      B/E     Dsus2      A/D 
Esus2      B/E     Dsus2      A/D 
Ichiban wa hitotsu ja nai 
Esus2      B/E     Dsus2      A/D 


[Ending]

e|--7--7--7--7---5--5---------------------------------|
B|--7--7--7--7---5--5--------------3-----3------------|
G|--9--9--8--8---7--7----6----5----2-----3----1--1----|
D|--9--9--9--9---7--7----7----5---------------2--2----|
A|--7--7--7--7---5--5----4----3----2-----1----2--2----|
E|----------------------------------------------------|

More chords by Houkago Tea Time: