Hostage Calm - Raised Guitar Chords

Hostage Calm

alternative emo

Chords: Am, C, G, D, E5, A5, Em
--------------------------------------------------------------------------
                           RAISED - Hostage Calm
--------------------------------------------------------------------------

Tuning: Half-step down


Intro:  Am    C     G     D     x2


E5                            A5         (see tab below for verse)
I'd rather be hated for who I am
E5                   A5
than loved for who I am
E5                          A5
It's no surprise we can't decide
             E5                 D
from side to side, from side to side


      Am                   C
Every passion is a passing phase              
            G                   D                 x2
The hell we raised, the hell we raised


         E5                   A5             (see tab below for verse)
Let them throw my flag to the flames
     E5                A5
It's just the way were raised
   E5                A5
To hate me for who I am
E5                     D
than love me for who I am

Em                        D
We wait for the static to come
        G                     C
It's no wonder we want to die young
       Em                        D
Grab a brick if you think it can change
         G                          C
Grab her hips if you think they can save


      Am                   C
Every passion is a passing phase              
            G                   D                 x4
The hell we raised, the hell we raised


Em                        D
We wait for the static to come
        G                     C
It's no wonder we want to die young
       Em                        D
Grab a brick if you think it can change
         G                          C
Grab her hips if you think they can save
Sing the words they'll read on the grave


      Am                   C
Every passion is a passing phase              
            G                   D                 x2
The hell we raised, the hell we raised


Verse:
   E5             A5                E5          D
eb|----------------------------|--|--------------------------|
Bb|----------------------------|--|-------------3------------|
Gb|----------------------------|x3|-------------2------------|
Db|-----4--------------4-------|--|-----4-------0------------|
Ab|---------------0------------|--|--------------------------|
Eb|-0--------------------------|--|-0------------------------|

Bells melody:
    Am           C            G             D
eb|-7--5---------7--5---------5--3-----7-5--5--3--------|
Bb|-----------------------------------------------------|
Gb|-----------------------------------------------------|
Db|-----------------------------------------------------|
Ab|-----------------------------------------------------|
Eb|-----------------------------------------------------|

More chords by Hostage Calm: