Hootie & the Blowfish - Before The Heartache Rolls In Guitar Chords

Hootie & the Blowfish

mellow gold, neo mellow, pop rock, post-grunge

Chords: G, Em, D, Am, C, Cadd9
Before The Heartache Rolls In
By Hootie & The Blowfish

[Intro]

  G Em         G Em          G Em
e|---------------------------------------------------------------
B|-----1p0-------------------------1p0---------------------------
G|--------2p0-------------0-----------2p0-2/4-4-4-4\2-0-----0-0--
D|-------------------0-0h2------------------------------0h2------
A|---------------------------------------------------------------
E|---------------------------------------------------------------

[Verse]

          G             Em         G                Em          G    Em  G  Em
There's a chill in your kiss and a thrill I've been missin' too long
     G         Em       G             Em        D             Am    D
This love is deceivin', babe I'm believin' this thing's goin' wrong
            Em        D        C        G
'Cause your eyes betray your heart and soul
         Em        D      C       G
And your love for me is growin' old
      Em            D        C         G
And I think maybe I better head outta here and

[Chorus]

Cadd9  Am  Cadd9  Am              G  Em  G  Em
R-o-o-o-o-o-o-o-o-o-ll like the wind   
          Cadd9  Am  Cadd9  Am                     G  Em  G  Em
I'm gonna r-o-o-o-o-o-o-o-o-o-ll till the highway ends
          C              D
I'm gonna roll on out of here
                                G Em
Before the heartache rolls in

[Intro]

  G Em         G Em          G Em
e|---------------------------------------------------------------
B|-----1p0-------------------------1p0---------------------------
G|--------2p0-------------0-----------2p0-2/4-4-4-4\2-0-----0-0--
D|-------------------0-0h2------------------------------0h2------
A|---------------------------------------------------------------
E|---------------------------------------------------------------

[Verse]
          G             Em      G          Em    G      Em  G  Em
There's a lonesome sound keeps rollin' around inside me
          G           Em      G         Em      D        Am    D
Those wheels on the highway whinin' on by, baby, I gotta leave
         Em        D            C            G
Cuz if I don't get out while my minds in control
      Em       D       C        G
I may never be able to ever let go
        Em         D         C         G
And I think maybe I better head outta here and

[Chorus]

Cadd9  Am  Cadd9  Am              G  Em  G  Em
R-o-o-o-o-o-o-o-o-o-ll like the wind   
          Cadd9  Am  Cadd9  Am                     G  Em  G  Em
I'm gonna r-o-o-o-o-o-o-o-o-o-ll till the highway ends
          C              D
I'm gonna roll on out of here

[Solo]

G Em G Em G Em G Em G Em G Em G Em G Em 

[Verse]

     Em        D            C            G
If I don't get out while my minds in control
      Em       D       C        G
I may never be able to ever let go
        Em         D      C        G
And I know that I gotta head outta here and

[Chorus]

Cadd9  Am  Cadd9  Am              G  Em  G  Em
R-o-o-o-o-o-o-o-o-o-ll like the wind   
          Cadd9  Am  Cadd9  Am                     G  Em  G  Em
I'm gonna R-o-o-o-o-o-o-o-o-o-ll till the highway ends
          C              D
I'm gonna roll on out of here
                           G  Em
Before the heartache rolls in

[Intro]

  G Em         G Em          G Em
e|----------------------------------------------------------------
B|-----1p0-------------------------1p0----------------------------
G|--------2p0-------------0-----------2p0-2/4-4-4-4\2-0-(let ring)
D|-------------------0-0h2----------------------------------------
A|----------------------------------------------------------------
E|----------------------------------------------------------------

More chords by Hootie & the Blowfish: