Hombres G - Si Yo No Te Tengo A Tí Guitar Chords

Hombres G

latin, latin alternative, latin pop, latin rock

Song versions: 1 2 3 4
Chords: A, E, Bm, F#m, D
Esta no es mi trabajo, solo estoy copiando de otro sitio web. No abia una tab para esta cancion y es incomodo no
 tenerlo aqui.


(RIFF 1)

e------------------------------------------------------
B------------------------------------------------------
G------------------------------------------------------
D----7-7-6-7-7-6-7-7-6-7-7--7-7-6-7-7-6-7-7-6-7-7------
A----7-7-7-7-7-7-7-7-7-7-7--7-7-7-7-7-7-7-7-7-7-7------
E------------------------------------------------------
    
    (RIFF 2)


e---5--5--4--5--5--4--5--5--4--5--5--------------------
B---5--5--5--5--5--5--5--5--5--5--5--------------------
G---4--4--4--4--4--4--4--4--4--4--4--------------------
D------------------------------------------------------
A------------------------------------------------------
E------------------------------------------------------

    (RIFF 3)

e--------5-------10----------7-------------------------
B---7--------------------------------------------------
G------------------------------------------------------
D------------------------------------------------------
A------------------------------------------------------
E------------------------------------------------------

    (RIFF 4)

e--------5-------10------14-------12-------------------
B---7--------------------------------------------------
G------------------------------------------------------
D------------------------------------------------------
A------------------------------------------------------
E------------------------------------------------------

    (RIFF 5)

e---12--12--12--12--12--12--12--12--12-----------------
B---12--12--12--12--12--12--12--12--12-----------------
G---11--11--11--11--11--11--11--11--11-----------------
D------------------------------------------------------
A------------------------------------------------------
E------------------------------------------------------

INTRO:(RIFF 1)

 A         E             A
Y no tengo nada ke me haga sonreir
A              E                    A
nadie que me abraze fuerte y me haga feliz
Bm                     F#m
no tengo nada ke azer no tengo porke vivir
Bm                    E
no tengo nada de nada si no te tengo a ti.

A           E                A
Solo quiero ke estes cerca de mi
A          E                A
yo no tengo a nadie sobre quien escribir
A             E                  A
nadie que se enfade y nadie con quien discutir
Bm                       F#m
no tengo a nadie con quien intentar sobrevivir
Bm                    E
no tengo con bailar descalzos por madrid.

CORO*

               A              F#m
Si yo no te tengo a ti si no estas cerca de mi
          A                   F#m
si no me besas me abrazas ke sera de mi sin ti
                D   E    D         E
si yo no te tengo a ti para ke quiero vivir 
              D      A
si yo no te tengo a ti. (RIFF 2)

 A            E                A        D  A
Si yo no te tengo a ti para ke seguir
A            E                        A            D  A
para ke escribir canciones a quien quiero mentir
Bm                         F#m
para ke un par de palabras te quiero y no llorare
Bm                        E
para ke todas estas lagrimas que caen sobre un papel.

CORO*

           A                F#m
Si yo no te tengo a ti si no estas cerca de mi
          A                F#m
si no me besas me abrazas ke sera de mi sin ti
            D           E        D                  E
si yo no te tengo a ti (RIFF 3)para que quiero vivir
            D        A
si yo no te tengo a ti. (RIFF 2)

A    (RIFF 2)     F#m
Si yo no te tengo a ti. x4
            D       E  (RIFF 3)
Si yo no te tengo a ti    
       D        E      (RIFF 4)
para ke quiero vivir      
           D        A
si yo no te tengo a ti. (RIFF 1)---------------(RIFF 5)

    (RIFF 2)                 
Shalalalalalalalala ah ah ah,shalalalalalalala ah ah ah
    (RIFF 2)           
Si yo no te tengo a ti,si yo no te tengo a ti etc.

More chords by Hombres G: