Hombres G - La Carretera Guitar Chords

Hombres G

latin, latin alternative, latin pop, latin rock

Song versions: 1 2 3 4
Chords: A, B, G, C, D, Em
INTRO:
|----0------0------|-------0---0------|-----3---3--3--|--------0---------|
|------0------0----|-----4-------4----|-----0---0-----|------------------|
|-2------2------2--|---4-----------4--|-----0---0-----|------0----0------|
|------------------|------------------|---------------|----2--------2----|
|-2----------------|-4----------------|-----0---0-----|--3------------3--|
|------------------|------------------|-3-------------|------------------|

|--------0--|
|-----------|
|------0----|
|----4------|
|--5--------|
|-----------|

A                                B
Calla, duerme, piensa aun queda mucho por andar,
    G                     C           D
la carretera es tensa y llueve sin parar
A                              B
curvas, baches, bares, perros muertos sin collar
      G          D        G              D
y la música que tú has traído para recordar
     G            C           D
aquella niña que sabe dios donde estará.

G                   Em
Me paso la vida marcando un nueve uno,
   C            D            C              D
cambiando de comida, con mi ropa oliendo a humo,
          G                   Em
y tú estarás dormida, en tú cuarto lleno de fotos,
      C             D             C          D
y yo jugando mi partida, con mis pantalones rotos,
      C            D                  Em
intentando que la voz me aguante hasta el final,
           C              D
donde tocaremos: sufre mamón.

INTERLUDIO:

|-------------|-------------|----------15----------------|
|-10b----10r--|-10v--8---8--|----12/15----15-17-17p15v---|
|-------------|--------9----|-14-------------------------|
|-------------|-------------|----------------------------|
|-------------|-------------|----------------------------|
|-------------|-------------|----------------------------|

|--12-12-12/10--7-8-7-7-7/--|
|--12-12-12/10--8-8-8-8-8/--|
|---------------------------|
|---------------------------|
|---------------------------|
|---------------------------|

|--10------------|-----------------------------------|
|-----12-10br-8--|--10b-10b-10-10-10-10r-8-10b-8-8/--|
|----------------|-----------------------------------|
|----------------|-----------------------------------|
|----------------|-----------------------------------|
|----------------|-----------------------------------|

|-----------------15----------|--12-12-12/10---7-8-7-8-7--|
|-----15----15-------12-12v/--|--12-12-12/10---8-8-8-8-8--|
|--12----12----12-------------|---------------------------|
|-----------------------------|---------------------------|
|-----------------------------|---------------------------|
|-----------------------------|---------------------------|


A                      B                   G
Ya en el camerino bebe agua y relájate la toalla
                            C            D
robada de un hotel y los autógrafos que das
        A                    B
que no sabes su valor y los das ¿por qué no darlos?
       G          D  G              D
y quisieras irte ya, te duele la espalda,
    G           C           D
te miras aun espejo y ves sudor y whisky y agua y mientras.

G                            Em
Tú estas en casa, donde el tiempo no pasa,
     C           D                 C              D
y no paro de pensar en  ti, sueño con las calles de Madrid.

       G                         Em
Y los técnicos recogen, todo el mundo se ha ido ya,
       C          D           C            D
ya no quedan ilusiones, sólo cajas que cargar
         C              D                  Em
y un camión que espera para llevarte a otro lugar,
          C               D       C             G
donde tocaremos: sufre mamón, devuélveme a mi chica


FINAL:

|--------------------------|-15-15/12-12--10--12--10-|
|-10br--10-8-10b-8-8---8-8-|-15-15/12-12--10--12--10-|
|--------------------9-----|-------------------------|
|--------------------------|-------------------------|
|--------------------------|-------------------------|
|--------------------------|-------------------------|

|-15-15-15-15--12-1517-17--15/-|
|-15-15-15-15--12-1517-17--15/-|
|-------------------------------|
|-------------------------------|
|-------------------------------|
|-------------------------------|

|---7-------7------||--12--8-810--10--|--12-810-10--12--|
|-------10----10---||--12--8-810--10--|--12-810-10--12--|
|-7---7----------7-||------------------|------------------|
|------------------||------------------|------------------|
|------------------||------------------|------------------|
|------------------||------------------|------------------|
                  X2
|---10-------7------||
|--------10----10---||
|-7----7----------7-||
|-------------------||
|-------------------||
|-------------------|| X2


|----------------------------|--12-------15v-1517------|
|--10b-10-10r--8-10-8v---8-8-|------15r-------------14v-|
|----------------------9-----|--------------------------|
|----------------------------|--------------------------|
|----------------------------|--------------------------|
|----------------------------|--------------------------|

|----7-------7-------||--15-12-10-12-10--10--||-----------||
|--------10----10----||--15-12-10-12-10--10--||--8v-------||
|--7---7----------7--||----------------------||-------7/--||
|--------------------||----------------------||-----------||
|--------------------||----------------------||-----------||
|--------------------||----------------------||-----------||
                   X2                      X2

NOTA: Los A se tocan sin el dedo de la cuerda 2ª cuerda
y los B van sin la cejilla

More chords by Hombres G: