Hole - Jennifers Body Guitar Chords

Hole

alternative rock, grunge, lilith, pop rock

Song versions: 1 2 3
Chords: E, G, D, B, E5, G5, D5, B5, A5, B6, G6, D6, A
Intro/Verse

Guitar 1 (Courtney):

     E            G             D     B
e|----------------------------------------------|
B|----------------------------------------------|
G|----------------------------------------------|
D|-7-7-7--10-10-10-10-10-10---------------------|
A|-6-6-6---9--9--9--9--9--9--10-10-10-7---------|
E|-0-0-0---0--0--0--0--0--0---9--9--9-6---------|

 (Played once, then Guitar 2 comes in, and both repeat riffs)


Guitar 2 (Eric): 

     E            G             D      B
e|----------------------------------------------|
B|----------------------------------------------|
G|-9-9-9--12-12-12-12-12-12---------------------|
D|-7-7-7--10-10-10-10-10-10--12-12-12\9-9-------|
A|-6-6-6---9--9--9--9--9--9--10-10-10\7-7-------|
E|-0-0-0---0--0--0--0--0--0---9--9--9\6-6-------|


   I know it
   I can't feel it
   But I know it enough
   To believe it

   I know it
   I can't see it
   But I know it enough 
   To believe it


Verse II

Guitars 1, 2:

      E5          G5         D5          B5
e|-----------------------------------------------|
B|-----------------------------------------------|
G|-9-9-9-9-9-9--12-12-12-------------------------|
D|-9-9-9-9-9-9--12-12-12-12-12-12-12-12-9-9-9----|
A|-7-7-7-7-7-7--10-10-10-12-12-12-12-12\9-9-9----|
E|-----------------------10-10-10-10-10\7-7-7----|


   It's bettering you, it's bettering me
   My bitter hand has bitten me
   It's bettering you, it's bettering me
   I'm sleeping with my enemy
   Myself


Chorus

Guitar 1 (Courtney):

     B5          G5         D5         A5
e|-------------------------------------------------|
B|-------------------------------------------------|
G|-----------------------7-7-7-7-7-----------------|
D|-9-9-9-9-9--5-5-5-5-5--7-7-7-7-7--7-7-7-7-7------|
A|-9-9-9-9-9--5-5-5-5-5--5-5-5-5-5--7-7-7-7-7------|
E|-7-7-7-7-7--3-3-3-3-3-------------5-5-5-5-5------|


Guitar 2 (Eric):

      B6          G6        D6          A 
e|-------------------------------------------------|
B|-------------------------------------------------|
G|-------------------------------------------------|
D|-----------------------4-4-4-4-4-----------------|
A|-6-6-6-6-6--2-2-2-2-2--5-5-5-5-5--4-4-4-4-4------|
E|-7-7-7-7-7--3-3-3-3-3-------------5-5-5-5-5------|

   Found pieces of Jennifer's body
   Found pieces of Jennifer's body
   Found pieces of Jennifer's body
   Just relax, just relax
   Just go to sleep
   Just relax, just relax
   Just go to sleep


Repeat chorus progression without playing A, and letting the D chord ring:


  B/B5      G/G5     D/D5


Resume intro/verse riff, followed by Verse II riff


Song ends with:


   B5      G5         D5

   Now... she's.... mine

More chords by Hole: