Headstones - Blonde And Blue Guitar Chords

Headstones

canadian indie, canadian rock

Song versions: 1 2
Chords: D, G, Em7, A, Em
Blonde and Blue – The Headstones

[Intro]

E|--------------------------|
B|--10--10--8--7--8--10--8--|
G|--------------------------|
D|--------------------------|
A|--------------------------|
E|--------------------------|

              D              G                          D                    
She makes me crazy, doesn't have a vicious bone in her body, well ain't it 
G
tasteful
              D              G                       D            G         
She says she hates me, and later on she says she's sorry, she's sorry

Prechorus:

Em7          G                              D
Thinking of these things [hold him down]
             A                     G
Holding him down, pulling off his wings
             Em7                            D
Thinking of these things [hold him down]
             A                     D
Holding him down, pulling off his wings

[Chorus]

 D          A        G
Blonde and blue
             D       G
Troubled and misused
           D     
Living without you
              A      G
My heart is yours
                 D        G
Nothing lasts forever
                  D      G
We'll always be together
                      D
When nothing lasts forever
              A
My heart is yours

Play this at the end of the first chorus:


    D             G         D             G
E|-----------------------|-------------------------------|
B|--10--10--8--7--8--10--|--10--10--8--7--8--10--8--7----|
G|-----------------------|----------------------------7--|
D|-----------------------|-------------------------------|
A|-----------------------|-------------------------------|
E|-----------------------|-------------------------------|  

            D            G                        D           G
It's armor-plated, you hooked up your heart and defied it
                D         G                D                   G          Em
Now if you're hated, you do so much to overwrite it, yeah overwrite it

Prechorus:
----------
Em           G                              D
Thinking of these things [hold him down]
             A                     G
Holding him down, pulling off his wings
             Em7                             D
Thinking of these things [hold him down]
             A                     D
Holding me down, pulling off my wings

[Chorus]

Add this part to the riff after the first chorus:

    D         G          D          A          D
E|--------------------------|---------------------|
B|--10--8--7--8--10--9\7----|---------------------|
G|-----------------------7--|--7-7--9--9/11\9--7--|
D|--------------------------|---------------------|
A|--------------------------|---------------------|
E|--------------------------|---------------------|  Go to Chorus

[Ending] 

             D      G
My heart is yours       [x3]
             A
My heart is yours     [end with Riff 1]

More chords by Headstones: