He Is We - Everything You Do Guitar Chords

He Is We

alternative pop rock, neo mellow, pixie, pop emo

Song versions: 1 2 3 4 5
Chords: G, Am7, Em7, C9, D, C, Cm
Drop D    Capo on 5


Chords

Verse

    G     Am7    Em7     C9  (slide from 2-3)
e---0------0------0-------0--------|
b---3------1------3-----2-3--------|
g---0------0------0-------0--------|
d---0------2------2-------0--------|
a---5------0------2-------3--------|
e---5------x------2-------x--------|


Pre-chorus

    Am7   C9
e---0-------0--------|
b---1-----2-3--------|
g---0-------0--------|
d---2-------0--------|
a---0-------3--------|
e---x-------x--------|



Chorus

     C9   Em7   D
e----0-----0----0---|
b----3-2---3----3---|
g----0-----0----2---|           X 2
d----0-----2----0---|
a----3-----2----0---|
e----x-----2----0---|


     C9   Em7   D   C    Cm
e----0-----0----0---0----3--|
b----3-2---3----3---3----4--|
g----0-----0----2---0----5--|
d----0-----2----0---0----5--|
a----3-----2----0---3----3--|
e----x-----2----0---x----x--|


Bridge

   Em7     C      G    D
e---0------0------0----0----|
b---3------3------3----3----|
g---0------0------0----0----|
d---2------0------0----4----|
a---2------3------5----0----|
e---2------x------5----0----|


Lyrics

(verse)
Do do do do do do do do do
Do do do do do do do do do
Do do do do do do do do do do do

Let me introduce myself,
I’m all smiles.
You may know me as a former ‘most love only last a while.’
Pessimistic, so realistic,
You get the picture.
I met you now my world is so much bigger.

(pre-chorus)
Upside down, off the ground is what you do.

(chorus)
When you touch me, it’s like the very first time.
I’m so lucky, to say that you’re mine.
I still get those stupid butterflies,
But it’s just what you do,
I’m loving everything you do.

(verse)
Do do do do do do do do do.
Do do do do do do do do do.
Do do do do do do do do do do do.

Crazy how it happened so fast,
Truly blows my mind.
Going on a hunt for four leaf clovers,
To wake up to that smile each sunrise.
Whenever I’m not by your side,
I get home sick.
A little pathetic, with a dash of ooey gooey so romantic.

(pre-chorus)
Upside down off the ground, God I love you.
upside down off the ground is what you do.

(chorus)
When you touch me, it’s like the very first time.
I’m so lucky, to say that you’re mine.
I still get those stupid butterflies,
but it’s just what you do.
I’m loving everything you do.

(verse)
Do do do do do do do do do.
Do do do do do do do do do.
Do do do do do do do do do do do.

I’m loving everything you do.

Do do do do do do do do do.
Do do do do do do do do do.
Do do do do do do do do do do do.

(bridge)
Yes sir you came and you took my breath,
My head is feeling a little light.
All right, I hope that you feel it too.
Yes sir you came and you took my breath,
My head is feeling a little light.
All right, I hope that you feel it too.

Oh everything you do.

I still get those stupid butterflies,
But it’s just what you do.

(verse)
(Do do do do do do do do do.
Do do do do do do do do do.
Do do do do do do do do do do do.)
When you touch me, it’s like the very first time.
And I’m so lucky, to say that you’re mine.
(Do do do do do do do do do.
Do do do do do do do do do.
Do do do do do do do do do do do.)
I still get those stupid butterflies,
But it’s just what you do.
I’m loving everything you do.
(Do do do do do do do do do.
Do do do do do do do do do.
Do do do do do do do do do do do.)
Everything you do,
Everything you do.
Whoa-oh,
whoa- oh oh oh oh oh.

(Do do do do do do do do do.
Do do do do do do do do do.
Do do do do do do do do do do do.)

I’m loving every single thing you do,

I’m so in love with everything you do.

Do do do do do do do do do.
Do do do do do do do do do.
Do do do do do do do do do do do.

More chords by He Is We: