He Is We - All About Us Guitar Chords

He Is We

alternative pop rock, neo mellow, pixie, pop emo

Song versions: 1 2 3 4 5 6
Chords: Em7, G, Cadd9, D
[Intro] 
    G                                                          D
e|---------------3---------------3----------------2-------------------2--|
B|-------3---------------3----------------3-----------------3------------|
G|-----------------------------------------------------------------------|
D|-----------------------------------0---------0-------0---------0-------|
A|-----------------------------------------------------------------------|
E|---3-------3-------3-------3-------------------------------------------|
   
e|---------------0------------------------------------0-----------------0--|
B|-------3---------------3----------3---------3----------------3-----------|
G|-------------------------------------------------------------------------|
D|----------------------------0h2--------0--------0-------0--------0-------|
A|---2-------2-------3-----------------------------------------------------|
E|-------------------------------------------------------------------------|
              
Take my hand, I'll teach you to dance                
I'll spin you around, won't let you fall down                     
Would you let me lead, you can step on my feet
Give it a try it'll be alright

[lightly strum]
Em7
The room's hush, hush
G
And now's our moment
Cadd9
Take it in, feel it all, and hold it
Em7              Cadd9
Eyes on you, eyes on me
G   (strum down palm muting slowly releasing getting louder then pause)               
We're doing this right

[Chorus]
[loud strum]
G                       
Cause lovers dance when they're feeling in love
D
Spotlight shinning, it's all about us
Cadd9             D
It's a...ll about u.....s.
G
And every heart in the room will melt
D
This is a feeling I've never felt but
Cadd9              D
It's a....ll about us

[pick same as intro x2]
Suddenly, I'm feeling brave     
Don't know what's got into me
Why I feel this way
Can we dance real slow
Can I hold you, can i hold you close

[lightly strum]
Em7
The room's hush, hush
G
And now's our moment
Cadd9
Take it, in feel it all and hold in
Em7              Cadd9
Eyes on you, eyes on me
G   [strum down palm muting slowly releasing getting louder then pause] 
We're doing this right

[strum]
G                       
Cause lovers dance when they're feeling in love
D
Spotlight shinning, it's all about us
Cadd9             D
It's a...ll about u.....s
G
And every heart in the room will melt
D
This is a feeling I've never felt but
Cadd9             D
It's a...ll about us

[palm muting]
Em7
Do you hear that love
Cadd9
They're playing our song
G
Do you think we're ready
Cadd9
Oh I'm really feeling it
Em7
Do you hear that love
G
Do you hear that love

[lightly strumming]
Em7
Do you hear that love
Cadd9
They're playing our song
G
Do you think we're ready yet
Cadd9
Love I'm really feeling it
Em7
Do you hear that love
G
Do you hear that love

[strum loud]
Em7
Do you hear that love
Cadd9
They're playing our song
G
Do you think we're ready
Cadd9
Oh I'm really feeling it
Em7                   Cadd9
Do you hear that love
G
Do you hear that love

(dont play but strum once at the first G,D and knock guitar x2 after G and X2 after D)
G
Lovers dance when they're feeling in love
D                       
Spotlight shinning, it's all about us
G
It's all about us
D (palm muting strumming down releasing and getting louder each strum)
It's a.....ll

[strum loud]
G
Every heart in the room will melt
D                                  Cadd9
This is a feeling I've never felt but
                       D
It's a...ll about us
G
Cause lovers dance when they're feeling in love
D
Spotlight shinning, it's all about us
Cadd9    D
It's a...ll, about u.....s
  (hey-ey hey)
G
And every heart in the room will melt
D                                 Cadd9
This is a feeling I've never felt but
Cadd9
It's a...ll
D (ending with one strum fading out)
It's all about us

More chords by He Is We: