Harry Styles - Sweet Creature Guitar Chords

Harry Styles

dance pop, pop, post-teen pop

Song versions: 1 2 3 4
Chords: G, C, G/B, Em, Dadd4, Am, Em/B, D, Dsus2, D7, D7/E, D7/F#, GM, Emadd9, Asus4, G/G
Harry Styles
"Sweet Creature"

Standard tuning.

   G   C   G/B Em  Dadd4 Am  Em/B D   Dsus2 D7 D7/E D7/F# GM  Emadd9 Asus4
e|(3)-----------------------------2---0-----2--2----2---------------|
B|-0---5---3---8---7-----1---0----3---3-----1--1----1-----0---0-----|
G|-0---0---0---0---0-----2---0----2---2-----2--2----2-----0---0-----|
D|-0------(2)-----------(2)--2----0---0-----0-------------4---4-----|
A|(2)--3---2---7---5-----0---2----------------------------5--(2)----|
E|-3-------------------------------------------0----2-----3---0-----|

[Intro]
  G                C       G/B      G                C       G/B     
e|----------------|----------------|----------------|----------------|
B|0---------0-----|5-------3-------|0---------0-----|5-------3-------|
G|------------0---|----0-------0---|------------0---|----0-------0---|
D|------0---------|----------------|------0---------|----------------|
A|----------------|3-------2-------|----------------|3-------2-------|
E|3---3---3-------|----------------|3---3---3-------|----------------|

  G                C       G/B      G              
e|----------------|----------------|----------------|----------------|
B|0---------0-----|5-------3-------|0---------0-----|0---------0-----|
G|------------0---|----0-------0---|------------0---|------------0---|
D|------0---------|----------------|------0---------|------0---------|
A|----------------|3-------2-------|----------------|----------------|
E|3---3---3-------|----------------|3---3---3-------|3---3---3-------|


[Verse 1]
  G                C       G/B      G              
e|----------------|----------------|----------------|----------------|
B|0---------0-----|5-------3-------|0---------0-----|0---------0-----|
G|------------0---|----0-------0---|------------0---|------------0---|
D|------0---------|----------------|------0---------|------0---------|
A|----------------|3-------2-------|----------------|----------------|
E|3---3---3-------|----------------|3---3---3-------|3---3---3-------|

  Em               Dadd4            C                G/B
e|----------------|----------------|----------------|----------------|
B|8---------8-----|7---------7-----|5---------5-----|3---------3-----|
G|------0-----0---|------0-----0---|------0-----0---|------0-----0---|
D|----------------|----------------|----------------|----------------|
A|7---7---7-------|5---5---5-------|3---3---3-------|2---2---2-------|
E|----------------|----------------|----------------|----------------|

G  C  G/B G  
Sweet creature
Em          Dadd4      C                G/B  G
Had another talk about where it's going wrong
        C G/B   G 
But we're still young
   Em                     Dadd4        C               G/B G  
We don't know where we're going but we know where we belong


[Pre-Chorus]
Am     Em/B
No, we started
    G             D   Dsus2
Two hearts in one home
     Am           Em/B
It's hard when we argue
           G           D        G
We're both stubborn, I know but oh


[Chorus]
C     G/B G     C     G/B G   
Sweet creature, sweet creature
C   G/B Am  G D7               G 
Wher-e- ver I go, you bring me home
C     G/B G     C     G/B G
Sweet creature, sweet creature
     C G/B Am  G  D7                 G
When I run out of rope, you bring me home

C G/B G

[Verse 2]
G  C  G/B G 
Sweet creature
      Em                  Dadd4        C                G/B  G
We're running through the garden where nothing bothered us
        C G/B   G 
But we're still young
  Em            Dadd4            C               G/B  G
I always think about you and how we don't speak enough


[Pre-Chorus]
Am     Em/B
No, we started
    G             D   Dsus2
Two hearts in one home
     Am           Em/B
It's hard when we argue
           G           D        G
We're both stubborn, I know but oh


[Chorus]
C     G/B G     C     G/B G   
Sweet creature, sweet creature
C   G/B Am  G D7               G 
Wher-e- ver I go, you bring me home
C     G/B G     C     G/B G
Sweet creature, sweet creature
     C G/B Am  G  D7                 GM
When I run out of rope, you bring me home
 
  GM                                Emadd9
e|----------------|----------------|----------------|----------------|
B|----------------|0---------------|----------------|0---------------|
G|------0---------|-------0--------|------0---------|-------0--------|
D|0h4-------4-----|---4--------4---|0h4-------4-----|---4--------4---|
A|----------------|----------------|----------------|----------------|
E|----3-------3---|----------------|----0-------0---|----------------|


[Bridge]
  Am           G/B
I know when we started
    G             D
Two hearts in one home
        Am             G/G
It gets harder when we argue
           G           D        G
We're both stubborn, I know but oh


[Chorus]
C     G/B G     C     G/B G   
Sweet creature, sweet creature
C   G/B Am  G D7               G 
Wher-e- ver I go, you bring me home
C     G/B G     C     G/B G
Sweet creature, sweet creature
     C G/B Am  G  D7 D7/E D7/F#             G
When I run out of rooooo0-ope, you bring me home

C G/B Am G D7
                GM 
You'll bring me home



***********************************
| h   Hammer-on
| ()  Optional notes
***********************************

More chords by Harry Styles: