Dustin Tebbutt - The Breach Guitar Chords

Dustin Tebbutt

chamber pop, folk-pop, indie anthem-folk, indie folk

Song versions: 1 2
Chords: Am7, Am7/G, Am7/F
Capo 1st fret

[Chords]
Am7   (x02010)
Am7/G (302010)
Am7/F (102010)

[Strumming pattern]
   Am7                                         Am7/G
e|---0--0-0-0---0--0-0-0---0--0-0-0---0--0-0-0---0--0-0-0---0--0-0-0---0--0-0-0---0--0-0-0--|
B|---1--1-1-1---1--1-1-1---1--1-1-1---1--1-1-1---1--1-1-1---1--1-1-1---1--1-1-1---1--1-1-1--|
G|---0--0-0-0---0--0-0-0---0--0-0-0---0--0-0-0---0--0-0-0---0--0-0-0---0--0-0-0---0--0-0-0--|
D|---2--2-0h2---2--2-0h2---2--2-0h2---2--2-0h2---2--2-0h2---2--2-0h2---2--2-0h2---2--2-0h2--|
A|-0----------0----------0----------0-------------------------------------------------------|
E|---------------------------------------------3----------3----------3----------3-----------|

   Am7/F                                       Am7/G
e|---0--0-0-0---0--0-0-0---0--0-0-0---0--0-0-0---0--0-0-0---0--0-0-0---0--0-0-0---0--0-0-0--|
B|---1--1-1-1---1--1-1-1---1--1-1-1---1--1-1-1---1--1-1-1---1--1-1-1---1--1-1-1---1--1-1-1--|
G|---0--0-0-0---0--0-0-0---0--0-0-0---0--0-0-0---0--0-0-0---0--0-0-0---0--0-0-0---0--0-0-0--|
D|---2--2-0h2---2--2-0h2---2--2-0h2---2--2-0h2---2--2-0h2---2--2-0h2---2--2-0h2---2--2-0h2--|
A|------------------------------------------------------------------------------------------|
E|-1----------1----------1----------1----------3----------3----------3----------3-----------|

[Intro]
Am7   Am7/G   Am7/F   Am7/G

[Verse]
Am7                   
   We're all scared of trenches
Am7/G
   And grow weak at knees
     Am7/F                    Am7/G
   I want you to know that
Am7                                Am7/G
   If all you've ever wanted was a dream
         Am7/F                        Am7/G
Then you know that I can't help you

[Chorus]
                   Am7                      
But did I show you love?
                    Am7/G
In the author on my face
                           Am7/F
‘cause you know you left a hollow
                       Am7/G
Where your body cut an alcove
               Am7
Did I show you love?
                         Am7/G
'cause the silence never stayed
                         Am7/F
It's a breach I'll never cover
                         Am7/G
It's a breach I'll never cover

e|---------------------------------|---------------------------------|
B|--5--3--1---1-1---1-1---1-1---1--|--5--3--1---1-1---1-1---1-0---0--|
G|---------0-----0-----0-----0-----|---------0-----0-----0-----0-----|
D|----------2-----2-----2-----2----|----------2-----2-----2-----2----|
A|---------------------------------|---------------------------------|
E|---------------------------------|---------------------------------|

e|-------------------------------------|
B|--5h8—5p3--1---1-1---1-1---1-1---1---|
G|------------0-----0-----0-----0------|
D|-------------2-----2-----2-----2-----|
A|-------------------------------------|
E|-------------------------------------|

e|----------------------------------------------------------------------|
B|--5h8—5p3--1---1-1---1-1---1-0---0-0---0------------------------------|
G|------------0-----0-----0-----0-----0----2---2-2---2-2---2-2---2-2--2-|
D|-------------2-----2-----2-----2-----2-----2-----2-----2-----2--------|
A|----------------------------------------------------------------------|
E|----------------------------------------------------------------------|

[Verse]
Am7
   You happened out the back door
Am7/G
   Laying bare this need
           Am7/F                   Am7/G
   Oh, you opened up this vessel
Am7
   And gather all the quivers
Am7/G
   That never got to fly
         Am7/F               Am7/G
   And a one and only cipher

[Chorus]
                   Am7                      
But did I show you love?
                    Am7/G
In the author on my face
                           Am7/F
‘cause you know you left a hollow
                       Am7/G
Where your body cut an alcove
               Am7
Did I show you love?
                         Am7/G
'cause the silence never stayed
                         Am7/F
It's a breach I'll never cover
                         Am7/G
It's a breach I'll never cover

e|----------------------------------|----------------------------------|
B|--5--3--1---1-1---1-1---1-1---1---|--5--3--1---1-1---1-1---1-0---0---|
G|---------0-----0-----0-----0------|---------0-----0-----0-----0------|
D|----------2-----2-----2-----2-----|----------2-----2-----2-----2-----|
A|----------------------------------|----------------------------------|
E|----------------------------------|----------------------------------|

e|--------------------------------------|
B|--5h8—5p3-3/1---1-1---1-1---1-1---1---|
G|-------------0-----0-----0-----0------|
D|--------------2-----2-----2-----2-----|
A|--------------------------------------|
E|--------------------------------------|

e|-----------------------------------------------------------------------|
B|--5h8—5p3-3/1---1-1---1-1---1-0---0-0---0------------------------------|
G|-------------0-----0-----0-----0-----0----2---2-2---2-2---2-2---2-2--2-|
D|--------------2-----2-----2-----2-----2-----2-----2-----2-----2--------|
A|-----------------------------------------------------------------------|
E|-----------------------------------------------------------------------|

[Outro]
Am7

More chords by Dustin Tebbutt: