Duncan Dhu - Palabras Sin Nombre Guitar Chords

Duncan Dhu

cantautor, rock en espanol, spanish new wave, spanish pop

Chords: Am, Dm, C, Em, D, E, F, B
Am-Dm-C-Em
Am....
D -----------------
La ----------2--3--0
E -0--3--0---------
(3 veces)

Am
Aqui esta la historia
                    Dm         C-Em
a quien quiera escuchar
Am
es la triste historia
                   Dm
de quien quiso regalar
   C       Em    Am
la luna sin preguntar
         Em      F         C-Em-Am
cuantas veces, tenia una razon
        Em            F        
cuantas veces, fueron dos

D -----------------
La ----------2--3--0
E -0--3--0---------

Am
Lagrimas no brotan
                     Dm        C-E
si uno no quiere llorar
Am
Mas el tiempo pesa
                   Dm
y uno no puede olvidar
    C    E     Am
el dia ya se oculto
        Em     F           C-Em-Am
si el otoño no te quiere dejar
      Em     F     
el invierno llegara

CORO
Am          Dm
y aqui en la noche
C             E               Am
no encuentro lugar donde descansar
               Dm
y aunque lo intente
C           E
palabras sin nombre

(se repite 2 veces)
E  -----------------------------
B  ---5--3--1-------5--3--1-----
Sol ------------2-------------2--

E  -------------------------3--------------
B  --------1-------1--3--5-----5--3--1-----
Sol --0--2-------2-----------------------2--


Am        Em   F        C-Em-Am
cuantas veces tenia una razon,
          Em         F        
cuantas veces fueron dos
Am    Em      F          C-Em-Am
si el otoño no te quiere dejar
      Em         F   
el invierno, llegara...

CORO x2
E  --------------------------------------------------
B  ---5--3--5--6-----5--3--5-------------------------
Sol -------------------------5--7--9--7--5--4--5------

E  --------------------------------------------------
B  ---5--3--5--6----8--6--5----5--3------------------
Sol ----------------------------------5--7--9---------

E  --------------------------------------------------
B  ---5--3--5--6----8--6--5--------------------------
Sol ----------------------------7--5--7---5--4--5-----


E  -----------------5--------------------------------
B  ---5--3--5--6-------6--5----5--3------------------
Sol ----------------------------------5--7--9---------

E  --------------------------------------------------
B  -------------3--5--6-----8--6--5------------------
Sol ----3--4--5-----------------------7--5--7--5--4--5

More chords by Duncan Dhu: