Duffy - Serious Guitar Chords

Duffy

dance pop, folk-pop, neo soul, pop

Song versions: 1 2
Chords: E6, C#, A, C#m, A#m7, Bm7, C#7, D
    _____________
   / Duffy      /  I think this sweet song is about a girl, whose boyfriend
  / Serious    /  can't seem to figure out how to be properly involved in a
 / Rockferry  /  relationship, which leaves the girl in the middle.
/____________/  

 Chords:
     E6   C#      A   C#m   D*     A#m7  Bm7   E6  C#7   D
e:---9----4--- ---5----4---(7)-- ---6-----7----9----9--------:
B:---9----6--- ---5----5----7--- ---6-----7----9----9----7---:
G:---9----6--- ---6----6----7--- ---6-----7----9---10----7---:
D:---9----6--- ---7----6----7--- ---6-----7----9----9----7---:
A:---7----4--- ---7----4----5--- ---8-----9----7---11----5---:
E:------------ ---5------------- ---6-----7---------9--------:
                    *the top note in bracket 'B' is sometimes
                     strummed, which makes this chord a D6.



 Intro:         2/4
               [break]
| E6 | C# | E6 | C#  |



 Pre-Verse:
| A | C#m | D | A |

 Verse:
||: A | C#m | D | A :|| 4x (shortly hit the A#m7 after the last A)



 Pre-Chorus:
| Bm7 | E6 | C#7 | D |


 Chorus:
| A | C#m | D | A |



 Verse

 Pre-Chorus

 2x Chorus

 ½ Verse

 Pre-Chorus + | D |

 2x Chorus


 Guitar Solo Outro:
||: A | C#m | D | A :||, repeat till fade out



 Ending Guitar solo
|-------------------------|-----------------------|
|-------------------------|-----------------------|
|-------------------------|-9-11-11-11b13r11-9----|
|-----------------7-9-/11-|-----------------------|
|--------7h9--7h9---------|-----------------------|
|---8h9-------------------|-----------------------|

|----------------------------|---------14p13p12----12----------------|
|---10h12--12-12b14-10----10-|---/14------------14----14p13p12----12-|
|----------------------11----|---------------------------------14----|
|----------------------------|---------------------------------------|
|----------------------------|---------------------------------------|
|----------------------------|---------------------------------------|

|-------------------|---------------------|
|------/14-------12-|b13r12---14~~\-------|
|-14~---------14----|-------------------7-|
|-------------------|---------------7h9---|
|-------------------|---------------------|
|-------------------|---------------------|

|----------------7--/8-|-9~--------9--7--7-|
|----------------------|-------------------|
|-------5b6--6/7---7/8-|-9~----7/9----7--7-|
|---7h9----------------|-------------------|
|----------------------|-------------------|
|----------------------|-------------------|

|-5------5----5------------|----------------9--------|
|-----5--------------5-7b8-|r7-5-5~---10b12----------|
|---6------6-----5h6-------|--------------------9h11-|
|--------------------------|-------------------------|
|--------------------------|-------------------------|
|--------------------------|-------------------------|

|----------------------------------|-----------------------------------:
|-10-12-12p10----10-12b14b15-10-12-|b14r12--10----10-------------------:
|-------------11-------------------|-----------11----11/9--------------:
|----------------------------------|----------------------11p10p9----9-:
|----------------------------------|------------------------------12---:
|----------------------------------|-----------------------------------:




 LYRICS
**********
[I always wanted to see
 The colours in your destiny
 I always wanted to know
 If our love will grow]

Serious
Serious

I'm a trophy on your arm
You wear me like a charm, yes you do
An accessory that suits
Your new suede boots, oh

I get a feeling deep down inside
Something just ain't right
I get a feeling that tells me I know
Baby you never show

How you really feel for me
Tell me, can we ever be
Serious?
Serious in love?

A joke on my expense
In front of all your friends all the time
A game you like to play
Leaves me solo every day

I get a feeling deep down inside
Something just aint right
I get a feeling that tells me I know
Baby you never show

How you really feel for me
Tell me, can we ever be
Serious?
Serious in love?
Serious?
Serious in Love?



------------------------------------------------------------------------------
 4th /June /10
 Just mail me at Maitinin@gmail.com with questions, comments and corrections!
------------------------------------------------------------------------------


 " Maitinin writing here - the author of this tab.

   The past 11 years, I have generated 10,318,000 views and 815 top-rated tabs for this site.
   If you want to support an eager contributor like me, check out my own site:


   _____  http://www.PlayLikeTheGreats.com  _____


   Here I will continue uploading my transcriptions - and hopefully make a bit more than nothing.

   Best regards,
   Maitinin "

More chords by Duffy: