DJ Shadow - This Time Guitar Chords

DJ Shadow

big beat, downtempo, electronic, hip hop

Chords: Am7, Dm7, Em7
Song: This Time (I'm Gonna Try It My Way)
tabbed by: qweyet Gi

A nice funky song. I couldn't find out who DJ Shadow originally sampled
from, so that's why its under DJ Shadow. There's guitar solo in
the latter portion of the song, but my limited skills prevents me from
figuring it out.
Leave your criticisms.

     Am7   Dm7   Em7
e|----5-----5-----7-----|
B|----5-----6-----8-----|
G|----5-----5-----7-----|
D|----5-----7-----9-----|
A|----7-----5-----7-----|
E|----5-----x-----x-----|

Intro:
    Em7                   Am7
e|-----------------------------------------------------|
B|---8--8--8--8---8-8--8---5-----5---------------------|
G|---7--7--7--7---7-7--7---5-----5---------------------|
D|---9--9--9--9---9-9--9---5-----5---------------------|
A|---7--7--7--7---7-7--7---7-----7---------------------|
E|-------------------------5-----5---------------------|

  Verse Riff - strum            Chorus Riff - strum
     Am7   Am7   Dm7   Am7         Dm7   Em7   Am7
e|-----------------------------|-----------------------|
B|----5-----5-----6-----5------|----6-----8-----5------|
G|----5-----5-----5-----5------|----5-----7-----5------|
D|----5-----5-----7-----5------|----7-----9-----5------|
A|----7-----7-----5-----7------|----5-----7-----7------|
E|----5-----5-----------5------|----------------5------|

Lyric Order
Verse 1 - Chorus
Verse 2 - Chorus - [Guitar Solo]
Verse 3 - Outro

Verse 1:                                     Chorus:
In the beginning, well, I didn’t know        But this time, this time
As time passed on still didn’t know,         I’m gonna try it my way
I didn’t know                                I’m gonna live life my way
                                             This time, this time
Verse 2:                                     I’m gonna try it my way, 
Well, I didn’t know, just couldn’t see       I’m gonna live life my way
The memories of past failures
Like a shadow haunting me                    Outro/Chorus:
                                             That’s why this time,
Verse 3:                                     this time
There was a dream                            I’m gonna try it my way
I wanted to come true                        I’m gonna try it my way
But dreams                                   Yeah this time, Oh, this time
You know they need to be followed through    I’m gonna try it my way
                                             I’m gonna live life my way

More chords by DJ Shadow: