Daniel F - Miradas Incompletas Guitar Chords

Daniel F

peruvian rock

Song versions: 1 2 3
Chords: D, A, G, Em, F#m, F#m7, F#, Bm
weno como ya estan las notas aca esta el intro:

---------5---------------------5----------------------------------------
-7--7-8----8-7-8-7-5-7-----7-8---8-7-8-7-5-8-7-5------------------------
-------------------------------------------------7--6-7-6-4--4----------
------------------------------------------------------------7-----------
------------------------------------------------------------------------
------------------------------------------------------------------------

----------------5-----------7------5------------------------------------
-8-8-7-5-7--7-8---8-7-8-7-5----7-8---8-7-8-7-5-8-7-5--------------------
-----------------------------------------------------7-6-7-6-4---4-7-6-7
---------------------------------------------------------------7--------
------------------------------------------------------------------------
------------------------------------------------------------------------


 D                            A
una lluvia de papel en tu ventana
                    G
Se acurruca en tu mirada
         Em         A
y me devuelve la ilusion
 D            F#m                      D
sin pensarlo 7 veces lanzo una media mirada
          F#m7         G
que me la devuelves callada
       Em                 A
dando vuelo a mi imaginacion.
      D        F#
llevame en tu regazo de viento
Bm                     F#m
en aquella incompleta mirada
     D        F#m
llevame no me dejes partir
       G        A          D
que estoy tan solo aki

D F#m Bm F#m   G F#m Em
nananara...

dedicado para.... tu sabes k es para ti melissa..

More chords by Daniel F: