Daniel Darc - Je Me Souviens Je Me Rappelle Guitar Chords

Daniel Darc

chanson

Chords: Am, Em, F, G, C
---------------------------------------------------------------------------------------------------------------
                                  Daniel Darc - Je Me Souviens Je Me Rappelle
---------------------------------------------------------------------------------------------------------------

Album : Crève coeur
Tempo : 88
E-mail: gwendal.mollo@orange.fr
Tabbed by: newg    (http://profile.ultimate-guitar.com/newg/)

Capo 1
                Am          Em                Am          Em
E |--3--1----|--0--------------0L---------|--0-----------------3--1----|
B |----------|--------------3-------------|----------------------------|
G |----------|----------------------------|----------------------------|
D |----------|----------------------------|----------------------------|
A |----------|----------------------------|----------------------------|
E |----------|----------------------------|----------------------------|

 Am           Em               F           G
--0--------------0----------|----------------------------|-------||
--------------3-------------|--1--------1--3--5----------|--1----||
----------------------------|--------------------0-------|--2----||
----------------------------|----------------------------|-------||
----------------------------|----------------------------|-------||
----------------------------|----------------------------|-------||


Am              Em
Je Me Souviens, Je Me Rappelle 
      Am                  Em
C'est en ces lieux chèrs à mon coeur
Am                Em
Le jour baissait, j'étais près d'elle
F                  G
Je me foutais bien du malheur

Refrain :
     C         G
Dissimule dans le silence
   F               G
Tes sentiments des espérances
    C                   G
Qui montent et plongent sans bruit
F          G                  
Etoile brillant,    dans la nuit

Am Em x3   F G


Am              Em
Je Me Souviens, Je Me Rappelle 
Am              Em
Très doucement, jouait le vent
Am               Em
Alors elle me semblait si belle
F                  G
 Alors moi j'avais   tout le temps

Refrain 


Am                       Em
Je Me Souviens, Je Me Rappelle 
Am                 Em
Une croix trop lourde pour moi
Am                  Em
Un bois qui pèse et m'écartèle
F                     G                  
Et pourtant comme j'aimais cette croix

Refrain 
 


Am Em  (parler)

Je me souviens je me rappelle
C'est en ces lieux chèrs à mon coeur
Le jour baissait j'étais près d'elle
Je me foutais bien du malheur

Je me souviens je me rappelle
Très doucement le vent jouait
Alors elle me semblait si belle
Et moi le temps je l'avais, oui

Je me souviens je me rappelle
Une croix trop lourde pour moi
Un bois qui pèse et m'écartèle
Et pourtant je l'aimais cette croix

F              G
Je me souviens je me rappelle

Am Em 
Je Dissimule dans le silence
Mes sentiments mes espérances
Qui montent et plongent sans bruit
Etoile brillant dans la nuit
F              G
Etoile brillant encore dans la nuit
Dans la nuit et puis

Am Em x3        \
F G             / plusieurs fois

More chords by Daniel Darc: