Daniel Caesar - Japanese Denim Guitar Chords

Daniel Caesar

indie r&b, pop, rap

Song versions: 1 2 3
Chords: Bb, Eb, Gm, Fm, Abm, Db, Cm, Gb
Japanese Denim

Could be somewhat wrong, but still better than some other tabs

Chords
     Bb  Eb  Gm  Fm  Abm Db  Cm  Gb
E|---6---6---10--8---4---4---3---9---|
B|---6---8---11--9---4---6---4---10--|
G|---7---7---12--8---4---6---5---11--|
D|---8---8---12--10--6---6---5---11--|
A|---8---6---10--8---6---4---3---9---|
E|---6-------10------4-----------9---|

This means change before the next line

        Bb
Line


Some fidley bits too add as needed in their respective chords

     Fm
E|---8-------------------------------------------------------------------------|
B|---8h9-----------------------------------------------------------------------|
G|---8---------------------------7--7h8p7--------------------------------------|
D|---8h10---------------8---10-------------8(6)---[depending on chord change]--|
A|---8-------------------------------------------------------------------------|
E|---8----[x2_hold_x1]---------------------------------------------------------|

     Eb         Bb
E|--------------------|
B|---9p8--------------|
G|---8----------8p7---|
D|--------------8-----|
A|--------------------|
E|--------------------|

Start
[Intro]

   Eb   Eb                                            Bb
        I don't stand in line, I don't pay for clubs, Fuck that
E|--6-------------------------------------------------------|
B|--8-------------------------------------------------------|
G|--7-------------------------------------------------------|
D|--8-------------------------------------------------------|
A|--6-------------------------------6----8/10----8----------|
E|-----------------------------8----------------(7)---------|
               Fm
But I wait for you
Fm                                            Abm        Db
I don't like to drink, I don't like to think, Fuck that
Db              Eb
But I ponder you
Eb
I'm bending it over
  Bb
You're my four leaf clover
                            Fm
I'm so in love, so in love
Fm                      Abm
There's no one above up above
Db                     Eb
Forever's a long time, yes

[Chorus]
        Bb
My blue jeans......
   Fm                        Abm   Db  Eb
Will last me all............. my life, yes
          Bb
So should we
Fm                            Abm   Db   Eb (quick stop)
I'm spending all............. this time

[Verse 2]
Eb                                          Bb            Fm,Bb (quick)
...Met you at the shop, Sun was getting hot, I'm lonely

                     Fm     Bb
I'm in the city on my own
Fm                                       Abm            Db
Never would've thought you'd be the one, I got a homie
Db                          Eb
But that's the way it goes
Eb
I'm reaching Nirvana
Bb
Goodbye sweet Rwanda
                      Fm
High school was never for me
                        Abm
I say let it be, let it be
Db                     Eb
Forever's a long time

[Chorus]
        Bb
My blue jeans......
   Fm                        Abm   Db  Eb
Will last me all............. my life, yes
          Bb
So should we
Fm                            Abm   Db   Eb    Gm
I'm spending all............. this time


[Outro]
Gm
You don't even know me
Gb
You don't even know me
Abm
I'm hanging from the tree
Abm                     Db   Eb
I'm hanging from the tree


            Bb
Ahhhhhhhh...
            Fm
Ahhhhhhhh...
            Abm  Db    Eb
Ahhhhhhhh...
            Bb
Ahhhhhhhh...
            Fm
Ahhhhhhhh...
            Abm  Db    Eb
Ahhhhhhhh...

[Outro]
E|--13--10-----------------------------------------------------|
B|----------13--10---------------------------------------------|
G|------------------12--10------------10-----------------------|
D|--------------------------12--10-----------------------------|
A|-------------------------------------------------------------|
E|-------------------------------------------------------------|



************************************

| h   Hammer-on
| p   Pull-off
| r   Release
| /   Slide up
| \   Slide down

************************************

More chords by Daniel Caesar: