Danger Mouse - Two Against One Guitar Chords

Danger Mouse

garage rock, mashup

Song versions: 1 2
Chords: Cm, A#m, Fm, D7, C#7+
Main
    Cm    Cm    A#m   Fm
e|---3-----3-----1-----1-----|
B|---4-----4-----2-----1-----|
G|--5-5---5-5---3-3---1-1----|
D|---------------------------|
A|-3-----3-----1-------------|
E|-------------------1-------|

Chorus
    Cm    Cm     D7   C#7+
e|---3-----3-----------------|
B|---4-----4-----7-----6-----|
G|--5-5---5-5----5-----5-----|
D|--------------7-7---6-6----|
A|-3-----3-----5-----4-------|
E|---------------------------|

Verse 1
Cm                         A#m           Fm
Make no mistake I don`t do anything for free
          Cm                     A#m          Fm
I keep my enemies closer than my mirror ever gets to me.
Cm                             A#m              Fm
And if you think that there is shelter in this attitude,
Cm                     A#m           Fm
wait `til you feel the warmth of my gratitude.


Chorus
Cm              D7                 C#7+
(One) I get the feeling that it`s two against one.
Cm                         D7             C#7+
(One) I`m already fighting me, so what`s another one?
Cm                    D7                C#7+
(One) The mirror is a trigger and your mouth`s a gun.
Cm              D7               C#7+
(One) Lucky for me, I`m not the only one.

Verse 2
Cm        A#m           Fm
And if it looks to me like you in your reflection
Cm                   A#m            Fm
Plan to add your own fight to this dimension.
Cm                           A#m           Fm
Then tell it that this ain`t no free-for-all to see,
Cm                           A#m           Fm
there`s only three It`s just you and me against me.


Chorus

Cm        D7               C#7+
Lucky for me, I`m not the only one.


Solo over Cm A#m Fm
Something like this
e------------------------------|
B-----------4------------------|
G---------5---5----s5-3-s5-----|
D-------5----------------------|
A—333-6------------------------|
E------------------------------|

Verse 3
Cm          A#m           Fm
And if your foot`s on to sick a thousand "yes men", brand or brake
Cm                 A#m          Fm
into the middle of this little plan
Cm                                A#m                Fm
Then there`s your plan to hear me say, that I won`t play around
Cm                         A#m           Fm
the way, anyway, I plan to plan around them.


Chorus

Cm         D7               C#7+
Lucky for me, I`m not the only one.

More chords by Danger Mouse: