Dandelion Hands - Whats The Earliest Bill Murray Has Ever Gotten Drunk Guitar Chords

Dandelion Hands

lo-fi beats

Chords: Dmaj7, Bm/D, C#m/D, Dadd9, Bm
whats the earliest bill murray has ever gotten druk? by dandelion hands (ft. the fishermen narcs)

 Drop D

  Dmaj7  Bm/D  C#m/D   Dadd9         Bm            Dma9(omit 5)
D|--0------0------0------0---------------------------0--------------------------------|
A|--0------0------0------0---------------------------0--------------------------------|
D|--0------0------0------0------------9--------------0--------------------------------|
G|--2------4------6------9------------7--------------9--------------------------------|
B|--2------3------5------7------------7--------------7--------------------------------|
e|--2------2------4------5------------7--------------9--------------------------------|


[VERSE]

Dmaj7
   she's not evil
         Bm/D
shes a corporate mass surrounded
       C#m/D
doing what she is demanded
        Dadd9
on the moon

Dmaj7
   lovely flowers
           Bm/D
spinning circles in her iris
           C#m/D
whispers something that's just too good
        Dadd9
to be true


[CHORUS]

          Bm
tell me more
                Dma9(omit 5)
then you're gone

(chorus outro - see below)



[VERSE]

Dmaj7
    porcelain goddess
          Bm/D
run your fingers through my long hair
         C#m/D
dull my senses till i don't care
          Dadd9
what is true


Dmaj7
    she's not evil
         Bm/D
just a little bit misguided
          C#m/D
give her time she'll be excited
           Dadd9
that its through


[VERSE]

           Bm
life's a chore
                  Dma9(omit 5)
then you're gone

(chorus outro - see below, end the song on Dma9(omit 5))


outro to chorus
D|---------------------------------------------------------------------------|
A|---------------------------------------------------------------------------|
D|---------------------------------------------------------------------------|
G|--2----2----2----2-2-2--2----2----2----2----2---2-2-2--2-2-x-2-2-----------|
B|--2--2-2--2-2--2-2-2-2--2--2-2--2-2--2-2--2-2---2-2-2--2-2-x-2-2-----------|
e|--2-2--0-0--2-2--0-0-0--2-2--0-0--2-2--4-4--5---5-5-2--2-2-x-0-0-----------|

More chords by Dandelion Hands: