Dance Gavin Dance - Betrayed By The Game Guitar Chords

Dance Gavin Dance

metalcore, pixie, screamo

Chords: G5, D, C, Em, G
[Chords]
e|-----| |--5--| |--3--| |-----| |--7--| |--7--|
B|--8--| |--7--| |--5--| |--8--| |--8--| |--8--|
G|--7--| |--7--| |--5--| |-----| |--9--| |--7--|
D|--5--| |--7--| |--5--| |-10--| |--9--| |--9--|
A|-----| |--5--| |--3--| |--7--| |--7--| |-10--|
E|-----| |-----| |-----| |--8--| |-----| |-----|
   G5       D       C       C*      Em      G

Tapping Riff 1 (TR1)    Tapping Riff 2 (TR2)

e|12/10---------------|12/10----------------------|
B|--------------------|---------------------------|
G|------T11p9p7p0-----|--------t11p9p7p0-T11p9p7p0|
D|---------------h7T12|---------------------------|
A|--------------------|---------------------------|
E|--------------------|---------------------------|

[Intro]
G5 TR1

[Verse]
G5            TR1
Damaged pride and vulnerable
D      TR1
All my fears are open now
C            TR1                    C  TR2
Never thought this would hit me so hard
G5            TR1
Staring at my hollow phone
D              TR1
Not sure if you're coming home
C                TR1               C TR2 G5   TR1
Bed still smells like I'm not all alone again
                   D TR1       C  TR1
I know we fucked it up this time
         C
We got so high
Couldn't see the bottom

[Chorus]
C*                Em
I just crashed my car
D                      C*
And it got me thinking of you
C*                   Em
So I just thought I'd call
D                           C*
To tell you, to tell you I, to tell you I still love you

[Bridge]
e|Tr17-Tr15-Tr14-Tr15-Tr14-------------------------------|
B|-------------------------Tr15-Tr17------Tr15-Tr17------|
G|-----------------------------------Tr16-----------Tr16-|
D|-------------------------------------------------------|  (play this twice for the bridge)
A|-------------------------------------------------------|
E|-------------------------------------------------------|

My mental image impaired
Undid the braids in my hair
I rain destruction in the fight of my inner feels
Remove the tricks of the trade
You're just alone on the stage
There's no witness fly your soul through the windshield

[Verse]
G5                TR1
Damaged pride and vulnerable
D       TR1
All my fears are open now
C              TR1                 C   TR2
Never thought I could hurt you so hard
G5           TR1
Staring at my hollow phone
D                TR1
Wondering if you've found your home
C           TR1             C  TR2   G5  TR1
Feel like I deserve to die alone again
                   D TR1       C TR1
We really fucked it up this time
      C
Got so low
Only for a second

[Chorus]
C*                Em
I just crashed my car
D                      C*
And it got me thinking of you
C*                   Em
So I just thought I'd call
D                           C*
To tell you, to tell you I, to tell you I still love you

[Bridge]
e|Tr17-Tr15-Tr14-Tr15-Tr14-------------------------------|
B|-------------------------Tr15-Tr17------Tr15-Tr17------|
G|-----------------------------------Tr16-----------Tr16-|
D|-------------------------------------------------------|  (play this twice for the bridge)
A|-------------------------------------------------------|
E|-------------------------------------------------------|

Take a sip from the drain
The flavor tastes like nothing
Or nothing tastes the same cause nothing is never there
I know what I'm talking 'bout
I believe the words in my mouth
'Cause I can say that it was all just a metaphor

[Outro]
G
In my heart and in my own mind in my soul
I know that they ain't never gonna break me
Em
In my heart and in my own mind in my soul
I know that they ain't never gonna break me
G
In my heart and in my own mind in my soul
I know that they ain't never gonna break me
Em
In my heart and in my own mind in my soul
                                            G
I know that they ain't never gonna break me

More chords by Dance Gavin Dance: