Dan Wilson - Love Without Fear Guitar Chords

Chords: Em, Bm, C, G, D, A
-------------------------------------------------------------------------------
                       LOVE WITHOUT FEAR - Dan Wilson
-------------------------------------------------------------------------------
Tabbed by: rdcoons
E-mail: gnr123@gmail.com
Tuning: standard
Capo 6

  Intro Riff: 
e|--2---2---2---3-2-0-----------------------------------------------------------|
B|--3-3---3---3------3-2---2---2---3-2-0----------------------------------------|
G|--2--------------------2---2---2-------2-0---0---0---2-0--------------------0-|
D|--0----------------------------------------0---0---0-----4-2-0---0---0---0h2--|
A|---------------------------------------------------------------0---0---0------|
E|------------------------------------------------------------------------------|

|Intro Riff| x 2
    Em                                  Bm
You meet a lot of lonely people on the road
C                      G
Get a little scared, throw you to the wolves
          Em                                 Bm
You meet a lot of perfect strangers in your room
C                   G
Get a little close, run away soon

D                   A
All I want in this life of mine
                G
Is someone to take my hand
              G   C   D
Walk with me side by side
D                   A
All I need in this world of tears
               G
Is someone to give me time
      G     C     D
And love without fear
        Em   Bm  G
Give me ti--me
                  D
And love without fear

|Intro Riff|
(D  A  G  D)

          Em                               Bm
You meet a lot of silent partners in this game
 C                      G
Standing to the side, waiting with a claim
         Em                             Bm
You see a lot of empty airships in this sky 
 C                G
Silver on blue, take you for a ride

D                   A
All I want in this life of mine
               G
Is someone to take my hand
              G   C   D
Walk with me side by side
D                    A
All I need in this world of tears
                G
Is someone to give me time
     G     C      D
And love without fear

D                   A
All I want in this life of mine
               G
Is someone to take my hand
              G   C   D
Walk with me side by side
D                    A
All I need in this world of tears
                G
Is someone to give me time
      G     C     D
And love without fear

        Em    Bm  G
Give me ti--me
                 D
And love without fear

        Em    Bm  G
Give me ti--me
                 D
And love without fear

|Intro Riff| x 2
 (A)         (G) (D)
Love without
 (D)               (A) (G) (D)
Love without fear

More chords by Dan Wilson: