Dan D - Male Roke Voda Guitar Chords

Dan D

slovenian rock

Chords: F#m, C#, G#m, Bm, F#, D, A, E, C#m, G, Am
UVOD 'Voda':

F#m C# G#m Bm            
F# C# G#m Bm


VERZ 'Male roke' (Tokac):

   F#m             C#               F#m
Od kod so te male roke ki jih ne poznam
  F#m            C#               F#m       
Zakaj vse zle besede nastale so tam
  Bm               D
Izbrisano vse na silo
   A             E
ostaja le tisti vir
     Bm            D        C#     F#m
Priznavajo le pribito kar nudi jim papir


VERZ 'Voda' (Tomi):

   F#   C#m              G#m   Bm   F#              C#m              G#m    Bm
In pusti naj te nosi voda, aha   para, para, para, pararararararara, aha
   F#   C#m              G#m   Bm   F#              C#m              G#m    Bm
In pusti naj te nosi voda, aha   para, para, para, pararararararara, aha


PREHOD:

   Bm F#m A E G A E D


VERZ 'Voda' (Tokac):
  F#
Bolecino pijemo
  C#m    
Skozi dno se vidi svet
  G#m
Lepota je skrita v nas
  Bm
Vse navidezno je laz

VERZ 'Voda' (Tomi):
  F#
Sijaj in beda, drek zlato
  C#m
V zepih ni to kar imas
  G#m
Pripada ti le to
  Bm                 F#  C#m    G#m     Bm
Kar na sreco zaigras...zaigraj  jeeee


REFREN 'Male roke' (Tokac):
  E      Bm         A
Zdaj ne vidi se vrhov za nas
F#m           D           E
vedno bolj oddaljen je svet
      Bm           F#m
Ni besed ki bi stopile moc
A           D           E
ta pogled izda vse te lepote

REFREN 'Male roke' (Tomi):
     Bm            F#m
A ne vemo, kaj je to
     E         D
ko izginjajo napake
Bm        F#m    E  F#m
In vse ostalo.


SOLO 'Voda':
   Am
e|----------|
B|----------|
G|----------|
D|----------|
A|-1/3-2----|
E|----------|


  ( E  Bm  F#m  Am  )  4x
   Am


e|------------------------10--10--9---9---7--7--9---9-----9------12p9--------9/12--12------15p12----------|
B|---7^?-5--7^-----7^?----12--12--10--10--9--9--10--10-------10--------10---10/13------13---------13------|
G|--------------------------------------------------------------------------------------------------14----|
D|--------------------------------------------------------------------------------------------------------|
A|--------------------------------------------------------------------------------------------------------|
E|--------------------------------------------------------------------------------------------------------|
                                                                                    
e|-16--16---14--14---12--12---10--10--9---9---7--7--9---9-----9------12p9--------9/12--12------14p12------|
B|-17--17---17--17---14--14---12--12--10--10--9--9--10--10-------10--------10---10/13------13---------13--|
G|------------------------------------------------------------------------------------------------------14|
D|--------------------------------------------------------------------------------------------------------|
A|--------------------------------------------------------------------------------------------------------|
E|--------------------------------------------------------------------------------------------------------|

e|------------------------10--10--9---9---7--7--9---9-----9------12p9--------9/12--12------14p12----------|
B|---7^?-5--7^-----7^?----12--12--10--10--9--9--10--10-------10--------10---10/13------13---------13------|
G|--------------------------------------------------------------------------------------------------14----|
D|--------------------------------------------------------------------------------------------------------|
A|--------------------------------------------------------------------------------------------------------|
E|--------------------------------------------------------------------------------------------------------|

e|-16--16---14--14---12--12---10--10--9---9---7--7--9---9------|
B|-17--17---17--17---14--14---12--12--10--10--9--9--10--10-----|
G|-------------------------------------------------------------|
D|-------------------------------------------------------------|
A|-------------------------------------------------------------|
E|-------------------------------------------------------------|   

e|-9--9--9--9--9--9--12-12-12-12-12-12-12-12-15-15-15-15-15-15-15-15-|
B|-10-10-10-10-10-10-13-13-13-13-13-13-13-13-13-13-13-13-13-13-13-13-|
G|-------------------------------------------------------------------|
D|-------------------------------------------------------------------|
A|-------------------------------------------------------------------|
E|-------------------------------------------------------------------|


REFREN 'Male roke' in 'Voda' (Tokac in Tomi):

        E      Bm
Zdaj ne vidi se vrhov za nas
F#m   Am
Pusti naj te nosi voda
        E      Bm
Zdaj ne vidi se vrhov za nas
F#m   Am
Pusti naj te nosi voda
        E      Bm
Zdaj ne vidi se vrhov za nas
F#m                  Am
Streljaj ravno v oci, streljaj ravno
  E      Bm
Zdaaaaaaaaaj
F#m   Am
Pusti naj te nosi voda


ZAKLJUCEK:

   E

e|--------------------------|
B|--------------------------|
G|--4-4-2-2-1-1-------------|
D|--------------2-2---------|
A|--------------------------|
E|--------------------------|

More chords by Dan D: