Dan Auerbach - Malibu Man Guitar Chords

Dan Auerbach

folk-pop, funk, garage rock, indie folk

Song versions: 1 2
Chords: D, A, E, Dmaj7, Amaj7, Bm
[Intro part 1]
        D     A     E
e|------2-----0-----0-|
B|------3-----2-----0-|
G|------2-----2-----1-| (x2)
D|------0-----2-----2-|
A|0-2-4-0-4-2-0-----2-|
E|--------------4-2-0-|

[Intro part 2]
 Dmaj7 Amaj7   Amaj7   Amaj7   E
e|2------0-------0-------0-----0-|
B|2------2-2-3-5-2-2-3-5-2-----0-|
G|2------1-------1-------1-4-2-1-| (x2)
D|0------2-------2-------2-----2-|
A|-------0-------0-------0-----2-|
E|-----------------------------0-|

[Verse 1]
  Dmaj7      Amaj7          Dmaj7     Amaj7
I moved from New York, with my boogie board
    Dmaj7        Amaj7        E
And bought a big house on the ocean
  Dmaj7          Amaj7            Dmaj7        Amaj7
I stopped eating meat, I took the shoes off my feet
Dmaj7        Amaj7      E
Just because I took the notion
   Dmaj7     Amaj7    Dmaj7      Amaj7
My hair gave in so my beard came out
Dmaj7          Amaj7  E
Caused quite a facial commotion
   Dmaj7        Amaj7            Dmaj7      Amaj7
It grew past my lips and then it covered my mouth
   Dmaj7        Amaj7   E
So no one could read my emotions

[Chorus riff]
        D       A
e|------2-------0-|
B|------3-------2-|
G|------2-------2-| (x2)
D|------0-------2-|
A|0-2-4-0-0-2-4-0-|
E|----------------|

Bm
Malibu Man
A
Isn't life grand?
Bm
He's got the world in his hands
A
Malibu Man

[Riff]
        D     A     E
e|------2-----0-----0-|
B|------3-----2-----0-|
G|------2-----2-----1-| (x2)
D|------0-----2-----2-|
A|0-2-4-0-4-2-0-----2-|
E|--------------4-2-0-|

[Verse 2]
Dmaj7           Amaj7      Dmaj7   Amaj7
Sometimes I get up but I'm feeling down
  Dmaj7        Amaj7     E
I don't have a sister or brother
   Dmaj7      Amaj7              Dmaj7      Amaj7
No family, no wife but I'm still living the life
     Dmaj7       Amaj7    E
Just step from a stone to another
      Dmaj7   Amaj7           Dmaj7        Amaj7
I'm a myth of man I ride the waves when I can
           Dmaj7    Amaj7       E
I make the music so people will buy it
       Dmaj7       Amaj7        Dmaj7    Amaj7
I take pride in my ways, and my colossal paydays
            Dmaj7       Amaj7      E
I'm just an old-fashion retailers' riot

[Chorus riff]
        D       A
e|------2-------0-|
B|------1-------2-|
G|------2-------2-| (x4)
D|------0-------2-|
A|0-2-4-0-0-2-4-0-|
E|----------------|

Bm
Malibu Man
A
Isn't life grand?
Bm
He's got the world in his hands
A
Malibu Man
Bm
Malibu Man
A
Isn't life grand?
Bm
He's got the world in his hands
A
Malibu Man

[Outro]
D                            A
Give it up Give it up Malibu Man
                             D
Give it up Give it up Malibu
                             A
Give it up Give it up Malibu Man
                             D
Give it up Give it up Malibu
                             A
Give it up Give it up Malibu Man
                             D
Give it up Give it up Malibu
                             A        D
Give it up Give it up Malibu Man   
                             A
Give it up Give it up Malibu Man

More chords by Dan Auerbach: