Dan Auerbach - Goin Home Guitar Chords

Dan Auerbach

folk-pop, funk, garage rock, indie folk

Song versions: 1 2 3
Chords: G, C, D
#-------------------------------PLEASE NOTE-------------------------------------#
# This file is the author's own work and represents their interpretation of the #
# song. You may only use this file for private study, scholarship, or research. #
#-------------------------------------------------------------------------------#
Goin' Home chords
Dan Auerbach 2009 (Keep It Hid 'The Black Keys')

Capo II

e --|--------|--------|--------|--------|--------|--------|--------|--------|
B 0-|3-----0-|------0-|--------|--------|--------|------0-|1-----3-|0-------|
G --|--------|0--02---|0-------|--------|------0-|2-------|--------|--------|
D --|--------|--------|------3-|2-----3-|2-------|--------|--------|--------|
A --|--------|--------|--------|--------|--------|--------|--------|--------|
E --|--------|--------|--------|--------|--------|--------|--------|--------| from capo

e   |--------|--------|--------|--------|--------|--------|--------|--------|
B   |----3---|0-------|----0---|2-------|-----0--|--------|-----0--|--------|
G   |--------|--------|--------|--------|----2---|0-------|----2---|0-------|
D   |--------|--------|--------|--------|--------|--------|--------|--------|
A   |--------|--------|--------|--------|--------|--------|--------|--------|
E   |--------|--------|--------|--------|--------|--------|--------|--------|


     G               C
I've spent too long away from home
                                G
Did all the things I could have done
                     C
Gone are the days of endless thrills
                        G
I know I'm not the only one

   D         C            G
So long, I'm goin', goin' home

  G                   C
I saw the streets all ripe with jewels
                          G
Balconies and the laundry lines
                      C
They tried to make me welcome there
                                    G
But their streets did not feel like mine

   D         C            G
So long, I'm goin', goin' home

G C G 2x D C G

  G               C
I want the sun to hit my face
                              G
Through oak trees in the open lot
                 C
Forget about the things you want
                             G
Be thankful for what all you got

   D         C            G
So long, I'm goin', goin' home
   D         C            G
So long, I'm goin', goin' home
   D         C            G
So long, I'm goin', goin' home



Set8

http://sites.google.com/site/guitarmusicchordsandlyrics/

More chords by Dan Auerbach: