Damso - Peur Dêtre Père Guitar Chords

Damso

belgian hip hop, french hip hop, rap conscient, trap francais

Chords: G, D, Em, EM
[Intro]
(x2)
     G           D          Em
e|--------------------------------------0----------------------|
B|--------------3---------3-----------3---3---3----------------|
G|--------------0---------0-----------------0------------------|
D|-----------0----------0----------2---------------------------|
A|-------2-----------0----------2------------------------------|
E|---3-----------2------------0--------------------------------|

      G           D             Em
e|------------------------------------------0------------------|
B|--------------3---------3-----------3/5------3---------------|
G|--------------0---------0------------------------------------|
D|-----------0----------0----------2---------------------------|
A|-------2-----------0----------2------------------------------|
E|---3-----------2------------0--------------------------------|

[Verse]
            G                  D           Em
Elle porte notre avenir dans son ventre
                       G            D
Première fois que je parlerai d'amour
            Em
En chanson pour faire court
                                         G                  D           Em
Oui, j'ai p't'être peur de ne pas être le père que j'veux être
                             G            D
J'tremble à chaque fois que j'vois grand boule
    Em
Bonne paire de kilo joules
                             G                  D           Em
Comment donner l'exemple de ce que je serai jamais, hey
                       G            D
Cursus scolaire très inquiétant
             Em
Vente d'haschich et stupéfiant
                            G               D           Em
Et puis merde t'façon chacun sa destinée, hey
                    G            D
Policier, peut-être tu seras
           Em
Que pourrais-je faire contre ça ?

[Chorus]
                  G         D        Em
J'ai si peur d'être pè-è-ère
                  G         D        Em
De voir l'enfer vu du cie-e-el
                  G         D        Em
De mes défauts qu'elle s'imprè-è-ègne
                     G         D        Em
Qu'elle n'atteigne jamais la 'tai-ai-aine
                  G         D        Em
Qu'elle m'aime et me follo-o-ow
                G     D        Em
En dehors de la scè-è-ène
                         G         D        Em
Qu'elle m'aime pour ce que je suis-is-is
               G         D        Em
En dehors de la scè-è-ène

[Verse]
                    G            D
Je réserve une balle pour celui
         Em
Qui en aide jamais ne te viendra
                       G            D
J'ferai le ménage, j'vais nettoyer celui
            Em
Qui entre nous se tiendra
                       G            D           Em
Avant j'étais juste pété, aujourd'hui, j'suis pété de thune
                       G            D
J'ai vu moins souvent l'daron
            EM
Qu'un croisement Soleil, Terre et Lune
                   G            D
Tout est noir comme désespoir
                 Em
De savoir que mort de mère est proche
                       G            D
J'sais pas c'que j'ferai si elle part
                Em
Avant de voir mon premier gosse
                       G            D
Trafiquant de mots, ça a prit tant de mois
                    Em
Pour être c'que je suis et faire ce que tu seras dans six mois

[Chorus]
                  G         D        Em
J'ai si peur d'être pè-è-ère
                  G         D        Em
De voir l'enfer vu du cie-e-el
                  G         D        Em
De mes défauts qu'elle s'imprè-è-ègne
                     G         D        Em
Qu'elle n'atteigne jamais la 'tai-ai-aine
                  G         D        Em
Qu'elle m'aime et me follo-o-ow
                G     D        Em
En dehors de la scè-è-ène
                         G         D        Em
Qu'elle m'aime pour ce que je suis-is-is
               G         D        Em
En dehors de la scè-è-ène

[Outro]
(x16)
e|----------7----------------------|
B|------8-------8---10------7/8----|
G|---------------------------------|
D|---------------------------------|
A|---------------------------------|
E|---------------------------------|
Hmm, hmm...
Baba, baba a leo mutoto yangu kesho
Baba, baba a leo mutoto yangu kesho
Baba, baba a leo mutoto yangu kesho
Baba, baba a leo mutoto yangu kesho


************************************

| /  Slide up

************************************

More chords by Damso: