Damien Saez - Jeune Et Con Guitar Chords

Chords: Em, C, G, D
[Intro] x2
Em C G D 

[Verse]
Em            C           G                    D
Encore un jour se lève sur la planète France
          Em                 C       G              D
Et je sors doucement de mes rêves je rentre dans la danse
              Em           C                     G             D
Comme toujours il est huit heures du soir j'ai dormi tout le jour
          Em            C               G              D
Je me suis encore couché trop tard je me suis rendu sourd encore

[Verse 2]
Em        C         G                   D
Encore une soirée où la jeunesse France
       Em            C               G               D
Encore, elle va bien s'amuser puisqu'ici rien n'a de sens
        Em       C               G           D
Alors on va danser faire semblant d'être heureux
          Em         C               G             D           D     D
Pour aller gentiment se coucher mais demain rien n'ira mieux

[Chorus]
             Em       C                    G         D
Puisqu'on est jeune et con, puisqu'ils sont vieux et fous
            Em             C                 G                D
Puisque des hommes crèvent sous les ponts, mais ce monde s'en fout
            Em        C                    G       D
Puisqu'on est que des pions contents d'être à genoux
           Em                   C           G        D            Em    C  G  D
Puisque je sais qu'un jour nous gagnerons à devenir fous, devenir fous

[Instrumental]
Em C G D

[Verse 3]
Em         C               G           D
 Encore un jour se lève sur la planète France
            Em             C                  G                D
Mais j'ai depuis longtemps perdu mes rêves je connais trop la danse
         Em                C                   G             D
Comme toujours il est huit heures du soir j'ai dormi tout le jour
           Em              C              G             D
Mais je sais qu'on est quelques milliards à chercher l'amour encore

[Verse 4]
Em        C          G            D
 Encore une soirée où la jeunesse France
     Em               C           G            D
Encore elle va bien s'amuser dans cet état d'urgence
         Em       C                G      D
Alors elle va danser faire semblant d'exister
        Em          C           G             D
Qui sait si l'on ferme les yeux on vivra vieux

[Chorus]
             Em       C                    G         D
Puisqu'on est jeune et con, puisqu'ils sont vieux et fous
            Em             C                 G                D
Puisque des hommes crèvent sous les ponts, mais ce monde s'en fout
            Em        C             G          D
Puisqu'on est que des pions contents d'être à genoux
           Em                   C           G          D          Em    C  G  D
Puisque je sais qu'un jour nous gagnerons à devenir fous, devenir fous

[Instrumental] x8
Em C G D 

[Outro]
Em         C              G            D
 Encore un jour se lève sur la planète France
          Em             C                 G                D
Où j'ai depuis longtemps perdu mes rêves je connais trop la danse
             Em            C                   G             D
Comme toujours il est huit heures du soir j'ai dormi tout le jour
            Em               C             G        D
Mais je sais qu'on est quelques milliards
Em
A chercher l'amour

[Arpège de la vidéo:]
e|-------------------------------------------|
B|-----0------1-------0--------3-------------|
G|---0--0---0---0---0---0----2---0-----------|
D|-------------------------0-----------------|
A|--------3----------------------------------|
E|-0--------------3--------------------------|

[Riff intro de la vidéo:]
e|--------------------------------------------------------------------|
B|-----3-----1----0-------------------3-----1--1-0---------3-0--------|
G|---0-----0----0----0-2---0---0----0-----0---------0-2--2------------|
D|-2-------------------------4----2-----------------------------------|
A|-------3------------------------------3-----------------------------|
E|--------------------------------------------------------------------|

e|-----0---------------------------------------------------------------|
B|-------3-----1--0-1-0------3-0-------3-----1---0---------3-------3---|
G|---0-------0----------2--2---------0-----0---0------2--2---2---2---2-|
D|-2-------------------------------2----------------0----------0-------|
A|---------3-----------------------------3-----------------------------|
E|---------------------------------------------------------------------|
Ralentir sur la fin de l'intro.

More chords by Damien Saez: