Damien Rice - Delicate Guitar Chords

Damien Rice

acoustic pop, folk-pop, indie folk, irish rock

Song versions: 1 2 3 4
Chords: F, C, G
James Esau
This is my first tab hope you like it.
Damien Rice - Delicate
Album - 0

Capo on 5th


[Intro] 

Just strum down using your thumb

     F                       C                            G
e|-------------------------------------------------------------|
B|---1--1----1----1----------1----1----1------------------1----|
G|---2--0h2--0h2--0h2--------0----0----0------------------0----|
D|---3--3----3----3-----0h2--0h2--0h2--0h2----------------0----|
A|---3--3----3----3----------3----3----3------------------2----|
E|---1--1----1----1----------0----0----0----(repeat 3x)---3----|


[Verse 1]

(Play as intro with the hammer-ons)

F         C     F      C
 We might kiss  we are alone
F        C
 nobody's watching
        G            C
I might take you home
F         C        F             C
 We might make out when nobody's there
F                    C
 It's not that we're scared
                    G
It's just that it's delicate


[Chorus]

(Strum the chords, * = play with hammer-ons)

              F
So why do you fill my sorrow
         C
With the words you've borrowed
         F                 C *
From the only place you've known
               F
And why do you sing Hallelujah
      C
If it means nothing to you
           F               C
Why do you sing with me at all?


[Verse 2]

F         C    F          C
 We might live like never before
F                        C
 When there's nothing to give
                G       
Well how can we ask for more
F         C         F              C
 We might make love in some sacred place
F                C       G
The look on your face is delicate


[Chorus]

(Strum the chords, * = play with hammer-ons)

              F
So why do you fill my sorrow
         C
With the words you've borrowed
         F                 C *
From the only place you've known
               F
And why do you sing Hallelujah
      C
If it means nothing to you
           F               C
Why do you sing with me at all?

              F
So why do you fill my sorrow
         C
With the words you've borrowed
         F                 C *
From the only place you've known
               F
And why do you sing Hallelujah
      C
If it means nothing to you
           F               C
Why do you sing with me at all?


[Outro] 

Just strum down using your thumb

     F                       C                            G
e|-------------------------------------------------------------|
B|---1--1----1----1----------1----1----1------------------1----|
G|---2--0h2--0h2--0h2--------0----0----0------------------0----|
D|---3--3----3----3-----0h2--0h2--0h2--0h2----------------0----|
A|---3--3----3----3----------3----3----3------------------2----|
E|---1--1----1----1----------0----0----0----(repeat 3x)---3----|


************************************

| h   Hammer-on

************************************

More chords by Damien Rice: