Dalevuelta - Paraiso Guitar Chords

Dalevuelta

peruvian rock

Chords: A, D, E, A5, D5, E5
Akí le mando la kanción de los kolchones Paraíso
aunke el intro es kon bajo, también suena kon guitarra
y si no les gusta ¡A mi Ke chucha tu!!!

Intro

------------------------------------------
------------------------------------------
------------------------------------------
------------------------------------------
---3-----3-----3-----3--------------------
-2-----2-----2-----2----------------------

------------------------------------------
------------------------------------------
------------------------------------------
------------------------------------------
---5-----5-----5-----5--------------------
-4-----4-----4-----4----------------------

--------------------------------------------------
--------------------------------------------------
--------------------------------------------------
--------------------------------------------------
---7-----7------5-----5-----3-----3-----3-----3---
-6-----6-----4-----4-----2-----2-----2-----2------

(Repetir intro)

A               D                   A                 D
Paraíso Paraíso ke lindo mi kolchón es paraíso   [ruuuuutu]
E       A            E
Ke lindo paraíso es mi kolchón

un dos 1, 2, 3  va

A5               D5                     A5                 D5
Paraíso Paraíso ke lindo mi kolchón es paraísooooooooo   
E5      A5            E5
Ke lindo paraíso es mi kolchón   (Taka taka tá)


Nota:Kreo que la segunda parte no esta muy bien
pero bueno hay patas ke sakan las kanciones 
mejores ke yo.
Saludos a Daniel(Travis) Marcos(Flash) Israel(Kalvo) Eizabeth(Habla muda), Julio(Bolaños)
al Antisocial Luis Miguel(Chamán) Angela(Sister d´broma) a su prima Milagros(Popeye) 
Melissa  A E  hermana Jessie, Cholazio(Horacio) y a mi enamorada Dania (Biskochita punk) 
ke la kiero un montón y ella lo sabe.
y a toda la gente punkeke del cole JAD de Lima.
Nos vemos en el Konzierto de cierre de año Kon DAleVueltA
Ke son de la putamadre karajo, ¡¡¡PROHIBIDO FALTAR, SINO MULTA!!!

More chords by Dalevuelta: