Dalevuelta - A Mi Que Chucha Tu Guitar Chords

Dalevuelta

peruvian rock

Chords: E5, C#5, A5, B5, B#5, B5&gtB#5, B#5&gtB5, B#5&gtb5
> - arrastrar

  E5  C#5   A5   B5   B#5
|-7----4----5----7-----8---|
|-7----4----5----7-----8---|
|-9----6----5----7-----8---|
|-9----6----7----9----10---|
|-7----4----7----9----10---|
|-7----4----5----7-----8---|


intro

e|-7--7--7--7--7--7--5--7---|--7-7-7-4-4-4-4-5-5-5-5--8--8->-7-7---|
B|-7--7--7--7--7--7--5--7---|--7-7-7-4-4-4-4-5-5-5-5--8--8->-7-7---|
G|-9--9--9--9--9--9--5--7--*|--9-9-9-6-6-6-6-5-5-5-5--8--8->-7-7--*|
D|-9--9--9--9--9--9--7--9--*|--9-9-9-6-6-6-6-7-7-7-7-10-10->-9-9--*|
A|-7--7--7--7--7--7--7--9---|--7-7-7-4-4-4-4-7-7-7-7-10-10->-9-9---|
E|-7--7--7--7--7--7--5--7---|--7-7-7-4-4-4-4-5-5-5-5--8--8->-7-7---|


E5      C#5       A5   B5  
estamos d akuerdo ya c komo es

E5   C#5          A5        B5
deje en el olvido las kosas d ayer

E5     C#5         A5       B5
yo voy por mi lado tu sabes ke hacer

E5       C#5      A5        B5
ya no me interesa no siento placer


E5    C#5   A5    B5>B#5  E5   C#5 A5 B#5>B5
yeyeye      yeye  yeye    yeye 


E5        C#5     A5          B5
todos tus engaños me hicieron sufrir

E5      C#5        A5     B5 
d todas las formas trat d seguir

E5        C#5       A5        B5
las kosas kambiaron ya no son asi

E5      C#5       A5         B5
t tengo un regalo y lo vas a sentir


A5     B5        E5 
y a mi ke chucha tuuu

A5     B5        E5
y a mi ke chucha tu

A5     B5        E5
y a mi ke chucha tuuu

A5       B5          E5 B#5>b5  E5 B#5>B5  E5 B#5>B5  E5 B#5>B5  
y a miii ke chuuucha tu 


E5 C#5 A5 B#5>B5

E5 C#5 A5 B#5>B5


E5    C#5        A5   B5
yo no soy kojudo yo c dicernir

E5    C#5          A5       B5
todas tus mentiras c kruzan sin fin

E5       C#5         A5      B5
mientras tu pensabas ke sera d mi

E5    C#5       A5        B5
yo ya imaginaba muy lejos d ti


E5    C#5  A5    B#5>B5  E5      C#5   A5    B#5>B5
yeyeye     yeye  yeye    yeyeye  yeye  yeye  yeye

E5     C#5       A5        B5
y a mi ke chucha tu manera d amar

E5     C#5       A5          B5
y a mi ke chucha si t kieres matar

E5     C#5       A5         B5
y a mi ke chucha si t dejas kulear

E5       C#5             A5     B5
por todo el pais y hasta por tu papa


A5     B5        E5 
y a mi ke chucha tuuu

A5     B5        E5
y a mi ke chucha tu

A5     B5        E5
y a mi ke chucha tuuu

A5       B5          E5 B#5>b5  E5 B#5>B5  E5 B#5>B5  E5 B#5>B5  
y a miii ke chuuucha tu 


e|--7--7--4--4--4--4--4--5--5--5--5--5--7-7-7--|
B|--7--7--4--4--4--4--4--5--5--5--5--5--7-7-7--|
G|--9--9--6--6--6--6--6--5--5--5--5--5--7-7-7--|
D|--9--9--6--6--6--6--6--7--7--7--7--7--9-9-9--|
A|--7--7--4--4--4--4--4--7--7--7--7--7--9-9-9--|
E|--7--7--4--4--4--4--4--5--5--5--5--5--7-7-7--|

e|--7--7--4--4--4--4--4--5--5--5--5--5--|
B|--7--7--4--4--4--4--4--5--5--5--5--5--|
G|--9--9--6--6--6--6--6--5--5--5--5--5--|
D|--9--9--6--6--6--6--6--7--7--7--7--7--|
A|--7--7--4--4--4--4--4--7--7--7--7--7--|
E|--7--7--4--4--4--4--4--5--5--5--5--5--|


E5      C#5       A5      B5
t tengo un regalo ke t va gustar

E5         C#5          A5   B5
si no pues preguntaselo a tu mama

E5      C#5      A5       B5
ke riko ke kacha y c deja kulear

E5        C#5        A5       B5
tu vieja, tu abuela, tu amiga ya estan ya estan   


A5     B5        E5 
y a mi ke chucha tuuu

A5     B5        E5
y a mi ke chucha tu

A5     B5        E5
y a mi ke chucha tuuu

A5       B5          E5 B#5>b5  E5 B#5>B5  E5 B#5>B5  E5 B#5>B5  E5
y a miii ke chuuucha tu         chuchaaaa  chuchaaaa  chuchaaaa  chucha tu

More chords by Dalevuelta: