Daisuke Ishiwatari - Coming Home Guitar Chords

Chords: Dsus2/F#, C#dim7, Csus2, Cadd11, Bm7add11, Dsus2, Cadd9, G, D, Em, Cm, Bm, Am, A#, C, A, B7, F#m, G#m, Gm, Bm7/F#
[Chords]
Dsus2/F#  2x0230
C#dim7    x45353
Csus2     x35533
Cadd11    x34010
Bm7add11  x20200
Dsus2     xx0230
Cadd9     x32030


[Intro]
    G                    D                    Em                   Cm      Bm Am
E |-3--3-----------------5--5-----------------7--7-----------------8---8---7--5--|
B |-3--3-----------------7--7--7---------7----8--8--8---------8----8---8---7--5--|
G |-4--4--4---------4----7--7----5-7---7---7--9--9----8-9---9---9--8---8---7--5--|
D |-5--5----4-5---5---5--7--7--------7--------9--9--------9--------10--10--9--7--|
A |-5--5--------5--------5--5-----------------7--7-----------------10--10--9--7--|
E |-3--3-----------------------------------------------------------8---8---7--5--| x2

G


[Verse 1]
G       D          Em               Cm                Bm
  Turn around stay away, life is so hard here it goes again
          A#             C
Time only for us or so I thought

G        D            Em                 Cm            Bm
  Out of rest, out of luck it's just the usual stuff I know
               C                   D
But where your footsteps gone what am I doing here?

[Bridge]
  C                     G                Bm          A#
I don't know how you're feeling now hope you are not lonely
Em       Dsus2/F#  G           Em      A  N.C.
  We are in the    bad weather are you crying?


[Chorus]
       C            G               Em              D
Coming home, coming home, I've been waiting for you all
        C               G              Em     Dsus2/F#  G
I'll be there, proud of you can't wait to see you smiling
       C            D              B7                 Em
Coming home, coming home but those words it self have fade away
C#dim7  Am       C         Cm    Csus2
The sun has gone down long time ago


[Instrumental]
Csus2  Bm  Am  Bm D
Csus2  Bm  Am  Bm F#m


[Verse 2]
G           D        Em                  Cm             Bm
  Our guard down our school, our neighborhood places to look
           A#               C
Can't find anything left of you
G            D          Em          Cm                       Bm
  On the highway to the border even though they're the seven seas
                C                   D
Can't find your footsteps but still looking for your trace


[Bridge]
        C               G              Bm                  A#
I don't know how you're doing now hope you ain't scared or alone
Em    Dsus2/F# G            Em          A  N.C.
   No one will harm you, so please stop crying


[Chorus]
       C            G               Em              D
Coming home, coming home, I've been waiting for you all
        C             G               Em     Dsus2/F#  G
I'll be there, lonely too can't wait to see you smiling
       C            D              B7                 Em
Coming home, coming home but those words that are now lost in nowhere
C#dim7   Am       C       Cm    Am
The moon has came up long time ago


[Instrumental]
Am     C   Cadd11


[Solo]
G    Bm  Am G#m  Am  G#m Gm F#m D


[Bridge]
        C                G                  Bm          A#
I don't know what should I do now not sure who I am anymore
Em    Dsus2/F#  G           Em            A  N.C.
   Was it       only me who thought we're family?


[Chorus]
       C            G               Em                   D
Coming home, coming home, I've been waiting to hear your words
        C                G              Em     Dsus2/F#  G
I'll be there, proud of you, can't wait to see you smiling
       C            D              B7                 Em
Coming home, coming home but those words itself have fade away
C#dim7  Am       C         Cm    G
The sun has gone down long time ago


[Outro]
    G                    Bm7/F#               Em                   Cm      Bm Am
E |-3--3-----------------2--2-----------------7--7-----------------8---8---7--5--|
B |-3--3-----------------3--3--7---------7----8--8--8---------8----8---8---7--5--|
G |-4--4--4---------4----2--2----5-7---7---7--9--9----8-9---9---9--8---9---7--5--|
D |-5--5----4-5---5---5--4--4--------7--------9--9--------9--------10--10--9--7--|
A |-5--5--------5--------2--2-----------------7--7-----------------10--10--9--7--|
E |-3--3-----------------2--2--------------------------------------8---8---7--5--|

G

Am   Bm7add11 Dsus2  Cadd9

More chords by Daisuke Ishiwatari: