Daiki Kasho - Soul Surfer Guitar Chords

Chords:
Intro: e|-------------------------------------------------------------|
       B|-------------------------------------------------------------|
       G|-6-6-6---------------------------6-6-6-----------------------| X3
       D|-6-6-6-7-7---7-2-2---2-4-4-x-x-x-6-6-6-7-7---7-2-2---2-4-4-4-|
       A|-4-4-4-7-7---7-2-2---2-4-4-x-x-x-4-4-4-7-7---7-2-2---2-4-4-4-|
       E|-------5-5---5-0-0---0-2-2-x-x-x-------5-5---5-0-0---0-2-2-2-|

Verse: e|-----------------------------------------------------------------------------|
       B|-----------------------------------------------------------------------------|
       G|-------------------------------------------6-6-6-6-6-6-6-6-6-6-6-6-6-6-6-6-6-|
       D|-7-7-7-7-7-7-7-7-7-7-7-7-7-7-7-7-7-7-7-7-7-6-6-6-6-6-6-6-6-6-6-6-6-6-6-6-6-6-|
       A|-7-7-7-7-7-7-7-7-7-7-7-7-7-7-7-7-7-7-7-7-7-4-4-4-4-4-4-4-4-4-4-4-4-4-4-4-4-4-|
       E|-5-5-5-5-5-5-5-5-5-5-5-5-5-5-5-5-5-5-5-5-5-----------------------------------|

          IIIIIIII reach for something,                 and getting back from nothing

       e|---------------------------------------------------------------------------|
       B|---------------------------------------------------------------------------|
       G|-----------------------------------------------------------4-4-4-4-4-4-4-4-|
       D|-7-7-7-7-7-7-7-7-7-7-7-7-7-7-7-7-7-7-7-7-7-2-2-2-2-2-2-2-2-4-4-4-4-4-4-4-4-|
       A|-7-7-7-7-7-7-7-7-7-7-7-7-7-7-7-7-7-7-7-7-7-2-2-2-2-2-2-2-2-2-2-2-2-2-2-2-2-|
       E|-5-5-5-5-5-5-5-5-5-5-5-5-5-5-5-5-5-5-5-5-5-0-0-0-0-0-0-0-0-----------------|

          I know there's something out there        proving that I need to be

       e|-----------------------------------------------------------------------------|
       B|-----------------------------------------------------------------------------|
       G|-------------------------------------------6-6-6-6-6-6-6-6-6-6-6-6-6-6-6-6-6-|
       D|-7-7-7-7-7-7-7-7-7-7-7-7-7-7-7-7-7-7-7-7-7-6-6-6-6-6-6-6-6-6-6-6-6-6-6-6-6-6-|
       A|-7-7-7-7-7-7-7-7-7-7-7-7-7-7-7-7-7-7-7-7-7-4-4-4-4-4-4-4-4-4-4-4-4-4-4-4-4-4-|
       E|-5-5-5-5-5-5-5-5-5-5-5-5-5-5-5-5-5-5-5-5-5-----------------------------------|
 
         IIIIIIII dreamed of being,                 somewhere where no one knows my name

       e|------------------------------------------------------------------------------------|
       B|------------------------------------------------------------------------------------|
       G|-----------------------------------------------------------4-4-4-4-4-4-4-4-6~-4~-6~-|
       D|-7-7-7-7-7-7-7-7-7-7-7-7-7-7-7-7-7-7-7-7-7-2-2-2-2-2-2-2-2-4-4-4-4-4-4-4-4-6~-4~-6~-|
       A|-7-7-7-7-7-7-7-7-7-7-7-7-7-7-7-7-7-7-7-7-7-2-2-2-2-2-2-2-2-2-2-2-2-2-2-2-2-4~-2~-4~-|
       E|-5-5-5-5-5-5-5-5-5-5-5-5-5-5-5-5-5-5-5-5-5-0-0-0-0-0-0-0-0--------------------------|

          Lying in the wait of something            caught between the side of the moon

Chorus: e|-------------------------------------------------------------|
        B|-------------------------------------------------------------|
        G|-6-6-6---------------------------6-6-6-----------------------| X4
        D|-6-6-6-7-7---7-2-2---2-4-4-x-x-x-6-6-6-7-7---7-2-2---2-4-4-4-|
        A|-4-4-4-7-7---7-2-2---2-4-4-x-x-x-4-4-4-7-7---7-2-2---2-4-4-4-|
        E|-------5-5---5-0-0---0-2-2-x-x-x-------5-5---5-0-0---0-2-2-2-|

           IIIIIIIIII'm gonna surf my sooooooooooul.  Yes, IIIIIIIIIII'm gonna show them wroooooong today.

           Hiiiiiiiiigh up on the waaaaaaaaaave.  And IIIIIIIII'm gonna surf my sooooooooooul todaaaaaaaaaay.

Verse: e|-----------------------------------------------------------------------------|
       B|-----------------------------------------------------------------------------|
       G|-------------------------------------------6-6-6-6-6-6-6-6-6-6-6-6-6-6-6-6-6-|
       D|-7-7-7-7-7-7-7-7-7-7-7-7-7-7-7-7-7-7-7-7-7-6-6-6-6-6-6-6-6-6-6-6-6-6-6-6-6-6-|
       A|-7-7-7-7-7-7-7-7-7-7-7-7-7-7-7-7-7-7-7-7-7-4-4-4-4-4-4-4-4-4-4-4-4-4-4-4-4-4-|
       E|-5-5-5-5-5-5-5-5-5-5-5-5-5-5-5-5-5-5-5-5-5-----------------------------------|
         
          Deeeeeeep under pressure,                 your voice just seems so far away

       e|---------------------------------------------------------------------------|
       B|---------------------------------------------------------------------------|
       G|-----------------------------------------------------------4-4-4-4-4-4-4-4-|
       D|-7-7-7-7-7-7-7-7-7-7-7-7-7-7-7-7-7-7-7-7-7-2-2-2-2-2-2-2-2-4-4-4-4-4-4-4-4-|
       A|-7-7-7-7-7-7-7-7-7-7-7-7-7-7-7-7-7-7-7-7-7-2-2-2-2-2-2-2-2-2-2-2-2-2-2-2-2-|
       E|-5-5-5-5-5-5-5-5-5-5-5-5-5-5-5-5-5-5-5-5-5-0-0-0-0-0-0-0-0-----------------|

          Down here the muffled silence             offers up the common view

       e|-----------------------------------------------------------------------------|
       B|-----------------------------------------------------------------------------|
       G|-------------------------------------------6-6-6-6-6-6-6-6-6-6-6-6-6-6-6-6-6-|
       D|-7-7-7-7-7-7-7-7-7-7-7-7-7-7-7-7-7-7-7-7-7-6-6-6-6-6-6-6-6-6-6-6-6-6-6-6-6-6-|
       A|-7-7-7-7-7-7-7-7-7-7-7-7-7-7-7-7-7-7-7-7-7-4-4-4-4-4-4-4-4-4-4-4-4-4-4-4-4-4-|
       E|-5-5-5-5-5-5-5-5-5-5-5-5-5-5-5-5-5-5-5-5-5-----------------------------------|
         
          Puuuuuull me down further,                your blood is pumping through my veins

       e|------------------------------------------------------------------------------------|
       B|------------------------------------------------------------------------------------|
       G|-----------------------------------------------------------4-4-4-4-4-4-4-4-6~-4~-6~-|
       D|-7-7-7-7-7-7-7-7-7-7-7-7-7-7-7-7-7-7-7-7-7-2-2-2-2-2-2-2-2-4-4-4-4-4-4-4-4-6~-4~-6~-|
       A|-7-7-7-7-7-7-7-7-7-7-7-7-7-7-7-7-7-7-7-7-7-2-2-2-2-2-2-2-2-2-2-2-2-2-2-2-2-4~-2~-4~-|
       E|-5-5-5-5-5-5-5-5-5-5-5-5-5-5-5-5-5-5-5-5-5-0-0-0-0-0-0-0-0--------------------------|
          
          Someday you'll see my strength and        fade away into the blue

Chorus: e|-------------------------------------------------------------|
        B|-------------------------------------------------------------|
        G|-6-6-6---------------------------6-6-6-----------------------| X4
        D|-6-6-6-7-7---7-2-2---2-4-4-x-x-x-6-6-6-7-7---7-2-2---2-4-4-4-|
        A|-4-4-4-7-7---7-2-2---2-4-4-x-x-x-4-4-4-7-7---7-2-2---2-4-4-4-|
        E|-------5-5---5-0-0---0-2-2-x-x-x-------5-5---5-0-0---0-2-2-2-|

           IIIIIIIIII'm gonna surf my sooooooooooul.  Yes, IIIIIIIIIII'm gonna show them wroooooong today.

           Hiiiiiiiiigh up on the waaaaaaaaaave.  And IIIIIIIII'm gonna surf my sooooooooooul todaaaaaaaaaay.

Bridge: e|-----|
        B|-----|
        G|-4/6-| X48
        D|-4/6-|
        A|-2/4-|
        E|-----|

        Is this blood and is this power.  In this day, the twilight hour

        Bring me food, bring me water.  This is how, this is bliss

        Love me more and love me harder.  In this night, the witching hour

        Kiss me now, kiss forever.  This is how, this is now

Pre-Chorus:    |-------------------------Muted-----------------------------|
            e|-------------------------------------------------------------|
            B|-------------------------------------------------------------|
            G|-6-6-6---------------------------6-6-6-----------------------| X4
            D|-6-6-6-7-7---7-2-2---2-4-4-x-x-x-6-6-6-7-7---7-2-2---2-4-4-4-|
            A|-4-4-4-7-7---7-2-2---2-4-4-x-x-x-4-4-4-7-7---7-2-2---2-4-4-4-|
            E|-------5-5---5-0-0---0-2-2-x-x-x-------5-5---5-0-0---0-2-2-2-|

               XXXXXXXXXX will mark the spoooooooooot.  Diiiiiiiiig and you shall seeeeeeeeee

               Caaaaaaaaall inside your dreeeeeeeeeams.  Nooooooooothing comes for freeeeeeeeee

Chorus: e|-------------------------------------------------------------|
        B|-------------------------------------------------------------|
        G|-6-6-6---------------------------6-6-6-----------------------| X4
        D|-6-6-6-7-7---7-2-2---2-4-4-x-x-x-6-6-6-7-7---7-2-2---2-4-4-4-|
        A|-4-4-4-7-7---7-2-2---2-4-4-x-x-x-4-4-4-7-7---7-2-2---2-4-4-4-|
        E|-------5-5---5-0-0---0-2-2-x-x-x-------5-5---5-0-0---0-2-2-2-|

           IIIIIIIIII'm gonna surf my sooooooooooul.  Yes, IIIIIIIIIII'm gonna show them wroooooong today.

           Hiiiiiiiiigh up on the waaaaaaaaaave.  And IIIIIIIII'm gonna surf my sooooooooooul todaaaaaaaaaay.

Outro:    |--------------------------Muted--------------------------| 
       e|-------------------------------------------------------------|
       B|-------------------------------------------------------------|
       G|-6-6-6---------------------------6-6-6-----------------------| X4
       D|-6-6-6-7-7---7-2-2---2-4-4-x-x-x-6-6-6-7-7---7-2-2---2-4-4-4-|
       A|-4-4-4-7-7---7-2-2---2-4-4-x-x-x-4-4-4-7-7---7-2-2---2-4-4-4-|
       E|-------5-5---5-0-0---0-2-2-x-x-x-------5-5---5-0-0---0-2-2-2-|

          Is this (blood?) and is this power.  In this day, the twilight hour

          Bring me food, bring me water.  This is how, this is now

          Love me more and love me harder.  In this night, the witching hour

          Kiss me now, kiss forever.  This is how, this is now...

Awesome, beautiful, and simple song. A lot of repetition, so it will be very easy to memorize

More chords by Daiki Kasho: