Daft Punk - Make Love Guitar Chords

Daft Punk

electro, electronic, filter house

Chords: B, G#m, D#m
[Chords]:

     B  G#m  D#m

e|---2---4---6---------|
B|---4---4---7---------|
G|---4---4---8---------|
D|---4---6---8---------|
A|---2---6---6---------|
E|---x---4---x---------|

Song:

     B     G#m        D#m
Make Love, Love, Make Love
     B     G#m       D#m
Make Love, Love Make Love
     B     G#m        D#m
Make Love, Love, Make Love
B     G#m        D#m
Love, Love, Make Love
     B     G#m        D#m
Make Love, Love, Make Love
B     G#m        D#m
Love, Love, Make Love
     B     G#m        D#m
Make Love, Love, Make Love
B     G#m        D#m
Love, Love, Make Love
B     G#m        D#m
Love, Love, Make Love
B     G#m        D#m
Love, Love, Make Love
     B     G#m        D#m
Make Love, Love, Make Love
B     G#m        D#m
Love, Love, Make Love

Guitar Melody:
     1  *  2  *  3  *  4  *   1  *  2  *  3  *  4  *   1  *  2  *  3  *  4  *   1  *  2  *  3  *  4  *
e|--------------------------|------------------------|------------------------|-------------------------|
B|--------------------------|------------------------|------------------------|-------------------------|
G|--------------------------|------------------------|------------------------|-------------------------|
D|---9--------9--------9--8-|-6--------6-------6h8---|-6-----8--6--------8--6-|-------8--6--8-----6--8--|
A|--------------------------|----------------------9-|------------------------|-------------------------|
E|--------------------------|------------------------|------------------------|-------------------------|

Staccato plucks work best.
Cheers

***********************************
| h   Hammer-on
***********************************

More chords by Daft Punk: