D.A.D. - Nineteenhundredandyesterday Guitar Chords

Song versions: 1 2
Chords: A, Bm, G, D, Em, Cm#
Track: Nineteenhundredandyesterday
Artist: D-A-D
Album: Everything Glows
--------------------------------------------
Tabbed by Thomas Lund
E-mail: samoht.dnul@get2net.dk
--------------------------------------------

Intro: (play 2 times)

-------0---------------2-0------------0-------------0-2-0---0---|
---2-----2---2-----3-------3---3---3----3---3-----3-------3-----|
-2---2-----2-----4---4-------4---0---0----0-----2---------------|
----------------------------------------------4-----------------|
----------------------------------------------------------------|
----------------------------------------------------------------|

-------0---------------2-0------------0-----------0-------------|
---2-----2---2-----3-------3---3---3----3-----3-----3-----------|
-2---2-----2-----4---4-------4---0---0------0---0---------------|
----------------------------------------------------------------|
----------------------------------------------------------------|
----------------------------------------------------------------|

Simultanously with the 2. time you play the intro:

A   Bm   G   D

A   Bm   G

----------------------------------------------------------------

VERS:

Bm     Bm

Bm          A
   I let a lie come true

       Em               G
I even cared enough to lie

   D                 G
Recieve what I transmit

    D                 G
And slowly close you eyes

Bm             A                   Em
   Yeah, to unlock our locked up love

                 G
And set it free

           D              G
You need a complicated key

           D              G
You need a key as big as me

----------------------------------------------------------------

CHORUS: (One guitar as intro x2)

A           Bm             G
   You were almost on my mind

          D                       A
Yeah, and though I'm doing just fine

       Bm              G
I have heard myself in many ways (Back in Nineteenhundredandyesterday)

A         Bm                 G
   Yeah, I think of you everytime

     D                  A
Everytime I leave it behind

        Bm                G
Back in Nineteenhundredandyesterday

----------------------------------------------------------------

VERS:

Bm      Bm

Bm            A
   And when I lie in bed

        Em                 G
And I'm going through the day

D                     G
What's been done and said

   D               G
It slips into my head

Bm          A
   You open up one door

                Em                    G
And then you're faced with many more

      D                   G
Yeah, I know all of them well

          D               G
I keep my questions to myself

----------------------------------------------------------------

CHORUS: (One guitar as intro x2)

A           Bm             G
   You were almost on my mind

          D                       A
Yeah, and though I'm doing just fine

       Bm              G
I have heard myself in many ways (Back in Nineteenhundredandyesterday)

A         Bm                 G
   Yeah, I think of you everytime

     D                  A
Everytime I leave it behind

        Bm                G
Back in Nineteenhundredandyesterday

----------------------------------------------------------------

D                    A
   Yeah, I thought I wanted it

Bm                   Cm#
   Yeah, I thought I needed it

          Em
And to unlock our locked up love

    G
You left the key and then you walked off...

----------------------------------------------------------------

        1. solo with rytBm guitar: D   G (x4)

----------------------------------------------------------------

CHORUS: (One guitar as intro x2)

A           Bm             G
   You were almost on my mind

          D                       A
Yeah, and though I'm doing just fine

       Bm              G
I have heard myself in many ways (Back in Nineteenhundredandyesterday)

A         Bm                 G
   Yeah, I think of you everytime

     D                  A
Everytime I leave it behind

        Bm                G
Back in Nineteenhundredandyesterday

----------------------------------------------------------------

D                    A
   Yeah, I thought I wanted it

Bm                   Cm#
   Yeah, I thought I needed it

                Em
But you were almost,

              G
Almost on my mind

----------------------------------------------------------------

        2. solo with Rythm guitar: A   Bm   G   D   A   Bm   G

        and one guitar as intro!

----------------------------------------------------------------

More chords by D.A.D.: