Coldplay - True Love Guitar Chords

Coldplay

permanent wave, pop

Song versions: 1 2
Chords: F#, D#sus2, A#m, E6, G#m, D#m7, C#, D#m, B
Tabbed by Kwint & Troy.


Artist : Coldplay
Song   : True Love
Album  : Ghost Stories [2014]

Chord shapes:
F#     [244322]
D#sus2 [x46644]
A#m    [x13321]
E6     [xx2120]

INTRO: F#


e|-------------6------------|
B|----7--9--7-----9--7--9---|          This riff continues through the whole song.
G|-6------------------------|
D|--------------------------|
A|--------------------------|
E|--------------------------|


VERSE:
F#                 D#sus2   
For a second I was in control
  A#m           E6
I had it once I lost it though
    G#m           D#m7                   C#
And all along the fire below would ri-i-ise
F#                         D#sus2
And I wish you could have let me know
       A#m              E6
What's really going on below
      G#m              D#m7 
I've lost you now, you let me go
    A#m       C#
But one last time


CHORUS:
F#               D#m
Tell me you love me
                   B    A#m
If you don't then lii-i-ie
           C#
Oh lie to me


INTERLUDE:
F#      D#m7       A#m      E6
G#m     D#m7       A#m      C# 


VERSE:
F#              D#sus2          
Remember once upon a time
     A#m             E6          
When I was yours and you were blind
   G#m               D#m7            
A fire would sparkle in your eyes
    A#m   C#
And mii-i-ine


CHORUS:
F#               D#m
So tell me you love me
                   B    A#m
If you don't then lii-i-ie
           C#
Oh lie to me

F#                    D#m
Just tell me you love me
                   B    F#
If you don't then lii-i-ie
    A#m   C#    (D#m)
Oh lii-i-ie to me

D#m                B    F#
If you don't then lii-i-ie
    A#m   C#    D#m
Oh lii-i-ie to me


BRIDGE:
B        G#m           D#m    C#
Call it true, call it true-ue-ue love
B        G#m           D#m    C#    B
Call it true, call it true-ue-ue love

B           |G#m


INSTRUMENTAL: (till the end)
F#      D#m7       A#m      E6
G#m     D#m7       D#m7     C#


SOLO:

e|-----------------------------------------------------------------------------|
B|--10b--------10b---\4-------7--7--6-----------7--7--6------------------------|
G|--------9b---------------------------8--6~-------------8--6---------------6--|
D|--------------------------------------------------------------8--6~-----4----|
A|-----------------------------------------------------------------------------|
E|-----------------------------------------------------------------------------|    x2




If you have any suggestions/corrections, please let us know in the comments!

More chords by Coldplay: