Coldplay - Trouble Guitar Chords

Coldplay

permanent wave, pop

Song versions: 1 2 3 4 5 6
Chords: E, C#m, G#m, G, F#m, F#, Bb, Ab
[Intro]
e|-----0----------0--------0---------2--------|-----0----------0--------0---------2--------|
B|---4---4------4--------4-------------4------|---4---4------4--------4-------------4------|
G|---------4--4--------4-----------------4----|---------4--4--------4-----------------4----|
D|--------------------------------------------|--------------------------------------------|
A|-------------------4------------------------|-------------------4------------------------|
E|-----------0----------------4---------------|-----------0----------------4-------------0-|

[Verse 1]
E    C#m   G#m
Oh -  no, I see
G                F#m            E
A spider web is tangled up with me
E     C#m      G#m
And I lost my head
    G                  F#m                E
And thought of all the stupid things I'd said

[Instrumental]
e|-----0----------0--------0---------2--------|
B|---4---4------4--------4-------------4------|
G|---------4--4--------4-----------------4----|
D|--------------------------------------------|
A|-------------------4------------------------|
E|-----------0----------------4-------------0-|

E  C#m         G#m
Oh no, what's this?
G                    F#m              E
A spider web and I'm caught in the middle
E     C#m      G#m
So I turned to run
     G                  F#m               E
And thought of all the stupid things I'd done

[Hook]
F#                            C#m
I never meant to cause you trouble
F#                       C#m
I never meant to do you wrong
F#                                C#m
And I, well if I ever caused you trouble
F#                             C#m
Oh no, I never meant to do you harm

[Instrumental]
e|-----0----------0--------0---------2--------|
B|---4---4------4--------4-------------4------|
G|---------4--4--------4-----------------4----|
D|--------------------------------------------|
A|-------------------4------------------------|
E|-----------0----------------4-------------0-|

[Verse 2]
E  C#m   G#m
Oh no, I see
   G              F#m           E
A spider web and it's me in the middle
E     C#m      G#m
So I twist and turn
    G               F#m    E
But here am I in my little bubble

[Hook]
              F#                      C#m
Singing and I never meant to cause you trouble
F#                      C#m
I never meant to do you wrong
F#                               C#m
And I, well if I ever caused you trouble
F#                             C#m
Oh no, I never meant to do you harm

[Outro]
Bb         Ab       G
They spun a web for me
Bb         Ab       G
They spun a web for me
Bb         Ab       G
They spun a web for me...

More chords by Coldplay: