Coldplay - Proof Guitar Chords

Coldplay

permanent wave, pop

Song versions: 1 2 3
Chords: E, C#m7, Badd11, C7
[Chords]
   E  C#m7  G#maddb13  Badd11  C7
e|-0----0-------0--------0-----0--|
B|-0----0-------0--------0-----0--|
G|-1----9-------4--------8-----9--|
D|-2---11-------6--------9----10--|
A|-2---11-------6--------9----10--|
E|-0----9-------4--------7-----8--|

[Intro]
E C#m7 E C#m7
E (one stroke)

[Verse 1]
(N.C.)
So I waited for you
What wouldn't I do?
And I'm covered, it's true
I'm covered in you

[Verse 2]
E (Fades in)      C#m7
  If I ever want proof
G#maddb13        C#m7
   I find it in you
E                 C#m7
  Yeah I honestly do
G#maddb13         C#m7
   In you I find proof

[Chorus 1]
Badd11       C#m7
  Light and dark
G#maddb13     C7
   A bright spark
Badd11       C#m7
  Light and dark
    G#maddb13 Badd11
And then, light

[Bridge] (Enters electric guitar)
E C#m7 E C#m7

[Verse 3] (Just electric)
E                  C#m7
  So I waited all day
G#maddb13          C#m7
  What wouldn't I say?
E                               C#m7
  And are there things in your way?
G#maddb13             C#m7  E
  Things happen that way, Oh

[Verse 4] (Enters acoustic)
E                     C#m7
  And if I ever want proof
G#maddb13        C#m7
   I find it in you
E                 C#m7
  Yeah I honestly do
G#maddb13         C#m7
   In you I find proof

[Chorus 2]
Badd11       C#m7
  Light and dark
G#maddb13     C7
   A bright spark
Badd11       C#m7
  Light and dark
    G#maddb13 Badd11
And then, light

[Outro] (Electric plays the outro riff)
E C#m7  E
    Light
E C#m7  E
    Light
E C#m7  E
    Light
E C#m7  E
    Light

[Outro riff]
   E                 C#m7
e|-----0---0-0---0-|-----0---0-0---0-|
B|---0---------0---|---0---------0---|
G|-1-----1---------|-1-----1---------| x4, ends in E
D|-----------------|-----------------|
A|-----------------|-----------------|
E|-----------------|-----------------|

More chords by Coldplay: