Coldplay - Magic Guitar Chords

Coldplay

permanent wave, pop

Song versions: 1 2 3 4 5 6 7 8
Chords: D, A, E, C#m
pretty simple Barre chords work throughout the whole song
100% Accurate


these are the barre chords used

    D      A      E     C#m
e---5------5------7------4-------------------------------------------
B---7------5------9------5-------------------------------------------
G---7------6------9------6-------------------------------------------
D---7------7------9------6-------------------------------------------
A---5------7------7------4-------------------------------------------
E---x------5------0------x-------------------------------------------

  (This is how i pick the intro)

   D                          A       E                       C#m
e-----------------------------------------------------------------------------|
B----7--7--7--7--7--7--7--7-----------9--9--9--9--9--9--9--9--5--5------------|
G----7--7--7--7--7--7--7--7---6--6----9--9--9--9--9--9--9--9--6--6------------|
D----7--7--7--7--7--7--7--7---7--7----9--9--9--9--9--9--9--9--6--6------------|
A---5--5--5--5--5--5--5--5----7--7---7--7--7--7--7--7--7--7--4--4--4----------|
E----------------------------5--5--5------------------------------------------|




D A E C#m ( Pick your own style for intro)


(Verse)
D       A   E

C#m     D
Call it magic
A       E
Call it true
C#m     D
Call it magic
A             E
When I'm with you
C#m            D
And I just got broken
A           E
Broken into two
C#m             D
Still I call it magic
A                E
When I'm next to you

(Pre-Chorus)
C#m       D
     And I don't, And I don't

And I don't, And I don't
      A
No, I don't, it's true

      E
And I don't, no I don't,

No I don't, no I don't

               C#m    D
Want anybody else but you


No I don't, no I don't

no I don't, no I don't
     A
No, I don't, it's true
     E
No I don't, no I don't,

No I don't, no I don't
               C#m    D
Want anybody else but you

Ooooh ooh ooh

Call it magic
Cut me into two
I'ma fold your magic
I disappear from view
And I can't get over
Can't get over you
Still I call it magic
It's such a precious jewel

And I don't, And I don't
And I don't, And I don't
No, I don't, it's true
I don't, no I don't,
No I don't, no I don't
Want anybody else but you
No I don't, no I don't
no I don't, no I don't
No, I don't, it's true
I don't, no I don't,
No I don't, no I don't
Want anybody else but you

Wanna fall
I fall so far
I wanna fall
I fall so hard
And I call it magic

(right here is a simple picking)
       D              E
e----5--5--5--5--5--7--7--7--7--7-----------------
B-----7--7--7--7--7--9--9--9--9--9----------------
G------7--7--7--7--7--9--9--9--9--9---------------
D-------------------------------------------------
A-------------------------------------------------
E-------------------------------------------------


And I call it true
I call it magic

Ooooh ooh ooh
Ooooh ooh ooh
Ooooh ooh ooh
Ooooh ooh ooh

And if you were to ask me
After all that we've been through
Still believe in magic
Oh yes I do
Oh yes I do
Yes I do
Oh yes I do
Of course I do

More chords by Coldplay: