Coldplay - Everythings Not Lost Guitar Chords

Coldplay

permanent wave, pop

Song versions: 1 2
Chords: E, E7/G, Esus4/C, A/E, E7, Bm7, F#m9, F#m7
Coldplay - Everything's Not Lost

Chords by Simon Kelly

There's already a version up on this site and it's pretty accurate, but personally, I find it difficult 
to play. So I made this version, with chords which don't require as much stretching. I still feel it's 
pretty accurate but maybe a little easier to play.

Standard tuning
No capo

This is how I play the chords, feel free to play them however way you want.



     E     E7/G  Esus4/C A/E   E7    Bm7   F#m9  F#m7
e|---0-----0-----0-------0-----0-----2-----4-----5---|
B|---0-----0-----0-------2-----0-----0-----2-----2---|
G|---1-----1-----2-------2-----1-----2-----2-----2---|
D|---2-----0-----2-------2-----0-----0-----2-----2---|
A|---2-----2-----3-------0-----2-----2-----4-----4---|
E|---0-----3-----0-------0-----0-----0-----2-----2---|


[Verse 1]
E         E7/G       Esus4/C
   When I counted up my demons.
E              E7/G       Esus4/C
   Saw there was one for every day.
E               E7/G        Esus4/C      
   And with the good ones on my shoulder,
A/E                       E
   I drove the other ones away. 

e|-------0---|
B|-------0---|
G|-----1-1---|
D|----2--2---|
A|---2---2---|
E|--0----0---|


[Chorus 1]
E         E7        Esus4/C
   If you ever feel neglected,
E         E7            Esus4/C
   If you think that all is lost,
E          E7             Esus4/C   A/E
   I'll be counting up my demons, yeah,
A/E
   Hoping that everything's not lost.

e|--12-12-12-12-12-12-4-5---|
B|--------------------------|
G|--------------------------|
D|--------------------------| x9
A|--------------------------|
E|--------------------------|


[Verse 2]
E           E7/G            Esus4/C
   When you thought that it was over,
E            E7/G        Esus4/C
   You could feel it all around,
E       E7/G          Esus4/C
   Everybody's out to get you,
A/E                          E
   Don't you let it drag you down.

e|-------0---|
B|-------0---|
G|-----1-1---|
D|----2--2---|
A|---2---2---|
E|--0----0---|
   

[Chorus 2]   
E         E7         Esus4/C
   If you ever feel neglected,
E         E7          Esus4/C
   If you think that all is lost,
E          E7          Esus4/C      A/E
   I'll be counting up my demons, yeah,
A/E
   Hoping that everything's not lost.

 
e|--12-12-12-12-12-12-4-5---|
B|--------------------------|
G|--------------------------|
D|--------------------------| x4
A|--------------------------|
E|--------------------------|


e|--12-12-12-12-12-12-16-17-|
B|--------------------------|
G|--------------------------|
D|--------------------------| x1
A|--------------------------|
E|--------------------------|


e|--12-12-12-12-12-12-4-5---|
B|--------------------------|
G|--------------------------|
D|--------------------------| x4
A|--------------------------|
E|--------------------------|
       

[Chorus 3]
E         E7       Esus4/C
   If you ever feel neglected,
E         E7       Esus4/C
   If you think that all is lost,
E          E7         Esus4/C          A/E
   I'll be counting up my demons, yeah,
A/E                             E
   Hoping that everything's not lost.


[Bridge]
E             
   Singing out,
E
   Ah ah ah yeah,
E7
   Ah ah yeah,
E 
   Ah ah yeah,
E7       A/E
   And everything's not lost.
E   
   So come on yeah,
E7   
   Ah ah yeah,
E   
   Ah come on yeah,
E7       A/E  
   And everything's not lost,
E   
   Ah ah ah yeah,
E7   
   Ah ah yeah,
E   
   Ah ah yeah,
E7       A/E 
   And everything's not lost,
E   
   So come on yeah,
E7              E
   Ah ah yeah--,
E7                 A/E
   Ah Come on yeah------,
E    
   Ah Come on yeah,
Bm7   
   Ah ah yeah,
F#m9   
   Ah come on yeah,
F#m9        F#m7             F#m9
   And everything's not lost,
E   
   So sing out yeah,
Bm7   
   Ah ah yeah,
F#m9   
   Come on yeah,
F#m9        F#m7             F#m9
   And everything's not lost,
E   
   Come on yeah,
Bm7   
   Ah ah yeah,
F#m9   
   Sing out yeah,
F#m9
   And everything's not lost...

E      Bm7      F#m9

More chords by Coldplay: