Coldplay - Amsterdam Guitar Chords

Coldplay

permanent wave, pop

Song versions: 1 2 3 4 5
Chords: D, A, E, G, E7
-------------------------------------------------------------------------------
                             Amsterdam - Coldplay
-------------------------------------------------------------------------------

Tabbed by:~*loni*~
Email:loniannah@yahoo.com

standard tuning
capo 1st fret


this is sorta a little "rendition" of the piano intro, listen to the song
to get the timing right...

   D        A     E      G
e|----2---------------------3------|
B|----3-3------2-----0-----0-0-----|
G|--2----2---2-2-2--1-----0---0----|  x3 
D|-0-------------------------------|
A|----------0----------------------|
E|-----------------0-----3---------|


[verse]
D        A        E           G
Come on, oh my star is fading
D       A         E         G
And I swerve out of control
D   A     E              G
If I, if I'd only waited
D        A         E               G
I'd not be stuck here in this hole.

*play intro and repeat verse*


[chorus]
E                    G
But time is on your side
              D        A 
It's on your side now
E7                        G    
Not pushing you down and all around
          D         A 
It's no cause for concern


*intro again and verse*

*chorus till end* 



and there you have it. it should be right. enjoy!

More chords by Coldplay: