Clueso - So Sehr Dabei Guitar Chords

Clueso

german hip hop, german indie, german pop

Song versions: 1 2 3
Chords: B, F, F#
Hallohallo,
ich bin mir 100% sicher das es so richtig ist.
Fragen und Vorschläge an janis225@hotmail.de

   B: 6          F: 1         F#: 2
      6             1             2
      6             2             3
      8             3             4
      8             3             4
      6             1             2

   Intro: B, F, F#, B

  Verse1:
          B
          Die letzten gäste sind raus, mein glas ist so leer.
          F
          Neben mir die stühle sind frei und so lang die musik noch
          F#
          läuft und mein tabak noch reicht,
                             B
          Nehm ich das volle programm.

          B
          Genieß den rest von mei'm rausch, mein kopf ist so schwer.
          F
          Frauen war'n auch viele dabei, nur mit wem ich wann und wo
          F#
          war und welches thema brisann
                                    B
          krieg ich grad nicht mehr zusamm'.

  Chorus:
          E|------9-------9--------8---------8------|
          H|--------6-------6-----------------------|
          G|-------------------------10--------10---|
          D|----8-------8-------10--------10--------|
          A|------------------8---------8-----------|
          E|--6-------6-----------------------------|
    Ich war  so      sehr   dabei


          E|----------------------------------------|
          H|-------11---------11--------6-------6---|
          G|----------11---------11-------6-------6-|
          D|----11---------11---------8-------8-----|
          A|--9----------9--------------------------|
          E|------------------------6-------6-------|
    Ich war  so         sehr      dabei

  Verse2:
          B
          Ich kam alleine hierher um zu vergessen
          F
          Dachte mir was für ein empfang und jeder lacht sich kaputt
          F#
          Dabei war'n wir uns doch fremd,
                                    B
          so komisch könn' menschen sein

          B
          Ich war am tanzen und trinken, fast wie besessen
          F
          Leute schossen fotos von mir und sie dachten ich krieg's nicht mit
          F#
          Mein gott wie einfach das ist
                              B
          im kopf woanders zu sein

  Chorus:
          E|------9-------9--------8---------8------|
          H|--------6-------6-----------------------|
          G|-------------------------10--------10---|
          D|----8-------8-------10--------10--------|
          A|------------------8---------8-----------|
          E|--6-------6-----------------------------|
    Ich war  so      sehr   dabei


          E|----------------------------------------|
          H|-------11---------11--------6-------6---|
          G|----------11---------11-------6-------6-|
          D|----11---------11---------8-------8-----|
          A|--9----------9--------------------------|
          E|------------------------6-------6-------|
    Ich war  so         sehr      dabei

  Verse3:
          B
          Die letzten gäste sind raus, die tanzfläche so leer.
          F
          Meine gedanken sind frei und solang die musik noch läuft
          F#
          und mein kleingeld noch reicht
                               B
          Nehm' ich das volle programm.

          B
          Genieß den rest von mei'm rausch, war gar nicht so schwer
          F
          und was ist schon dabei, denn mit wem irgendwann was wo war
          F#
          wirkt alles halb so brisant,
                                     B
          denn wir komm' nicht mehr zusamm'.

  Chorus:
          Ich war so sehr dabei
          Ich war so sehr dabei

          Ich war so sehr dabei
          Ich war so sehr dabei

          Ich war so sehr dabei.
          Ich war so sehr...

   Outro: Wie der Chorus

More chords by Clueso: