Clueso - Bleib Hier Guitar Chords

Clueso

german hip hop, german indie, german pop

Song versions: 1 2
Chords: D, C, Am, G, F
-------------------------------------------------------------------------------
                             BLEIB HIER - Clueso
-------------------------------------------------------------------------------
Tabbed by: Sepp

Tuning: standard


Intro: D / C

Verse: Am / G

Chorus: F / G / Am / Am

Interlude: D / C

Outro: after the last chorus just keep playing Am



e|--5--|--3--|--5--|--3--|--1--|
B|--7--|--5--|--5--|--3--|--1--|
G|--7--|--5--|--5--|--4--|--2--|
D|--7--|--5--|--7--|--5--|--3--|
A|--5--|--3--|--7--|--5--|--3--|
E|-----|-----|--5--|--3--|--1--|

    D     C     Am    G     F

More chords by Clueso: