Clueso - Auf Kredit Guitar Chords

Clueso

german hip hop, german indie, german pop

Song versions: 1 2
Chords: E, A, D, G, B, C9, G6, Bm, F#m, Am, Fmaj7, C, G4, Dsus4
AUF KREDIT by CLUESO

Tabbed by: moe
Date: December 30, 2009
Last update: February 22, 2011


Tuning: Standard (E - A - D - G - B - E)


Here are the chords you need for this song:

   C9    G6     G     D    Bm     E    F#m   Am   Fmaj7  G6*
e |-0-| |-0-| |-3-| |-2-| |-7-| |-7-| |-2-| |-5-| |-0-| |-0-|
B |-3-| |-3-| |-3-| |-3-| |-7-| |-9-| |-2-| |-5-| |-1-| |-3-|
G |-0-| |-0-| |-4-| |-2-| |-7-| |-9-| |-2-| |-5-| |-2-| |-4-|
D |-2-| |-0-| |-5-| |-0-| |-9-| |-9-| |-4-| |-7-| |-3-| |-5-|
A |-3-| |-2-| |-5-| |-x-| |-9-| |-7-| |-4-| |-7-| |-3-| |-5-|
E |-x-| |-3-| |-3-| |-x-| |-7-| |-x-| |-2-| |-5-| |-1-| |-3-|

Intro:

    C9            G6          D
e |---------------------------2-------------|
B |-----3---3-----3p1p0-----------3---3-----|
G |---0---0-----0-------0---2---2---2-----0-|
D |-----------------------0-----------------|
A |-3-----------------------------------0---|
E |-----------3---------3-------------------|

    C9            G6          D
e |---------------------------2-------------|
B |-----3---3-----3p1p0-----------3---3-----|
G |---0---0-----0-------0---2---2---2-------|
D |-----------------------0-----------------|
A |-3-----------------------------------0-2-|
E |-----------3-----------------------------|

    C         G4         D     
e |--------------------------2-----3p2---0---|
B |-----1---1-----1p0------------3-----------|
G |---0---0-----0-----0----2---2-------2---0-|
D |----------------------0---------0---------|
A |-3----------------------------------------|
E |-----------3------------------------------|

    C         G4         D
e |--------------------------2-------------|
B |-----1---1-----1p0------------3---3-----|
G |---0---0-----0-----0----2---2---2-----0-|
D |----------------------0-----------------|
A |-3----------------------------------0---|
E |-----------3----------------------------|

    C9            G6          D
e |---------------------------2-------------|
B |-----3---3-----3p1p0-----------3---3-----|
G |---0---0-----0-------0---2---2---2-----0-|
D |-----------------------0-----------------|
A |-3-----------------------------------0---|
E |-----------3-----------------------------|

    C9            G6          D
e |---------------------------2-------------|
B |-----3---3-----3p1p0-----------3---3-----|
G |---0---0-----0-------0---2---2---2-------|
D |-----------------------0-----------------|
A |-3-----------------------------------0-2-|
E |-----------3-----------------------------|

    C         G4         D
e |--------------------------2-------0-----|
B |-----1---1-----1p0------------3-------0-|
G |---0---0-----0-----0----2---2---2-------|
D |----------------------0-----------------|
A |-3----------------------------------0---|
E |-----------3----------------------------|

    C         G4         D                 Dsus4
e |--------------------------2-------2-----3-3-3-3p2p0h2p0-0---|
B |-----1---1-----1p0------------3-------3-3-3-3-3---------3-0-|
G |---0---0-----0-----0----2---2---2---2-----2-2-2---------2-0-|
D |----------------------0-----------------------0---------0-0-|
A |-3----------------------------------------------------------|
E |-----------3------------------------------------------------|

Verse 1:

C9      G6             D  
Gib mir was, das ich gebrauchen kann
C9       G6                      D  
Ich will was veraendern und zwar gleich
Bm          E              D
   Ich zahl dir das gern zurueck
F#m      G      D 
Alles zu seiner Zeit

Verse 2:

Gib mir was, das ich gebrauchen kann
Ich kann nichts anfangen mit all dem Scheiss
Denn ich will spueren, dass es sich lohnt
Der ganze Fleiss

Chorus:

               Am                                D
Ich will, dass duuuuu mir etwas gibst von deiner Zeit
               Fmaj7     G6*           D   
Ich will, dass du mal da bist und zwar gleich
               Am                                D
Ich will, dass duuuuu mir etwas gibst von deiner Zeit
               Fmaj7     G6*           D   
Ich will, dass du mal da bist und zwar gleich

Verse 3:

Gib mir was, das ich gebrauchen kann
Hab das Gefuehl, dass ich in mir erstick
Soll auch nicht fuer umsonst sein
Ich geb dir das gern zurueck

Verse 4:

Gib mir was, das ich gebrauchen kann
Etwas, das mich einfach ueberrollt
Gar nichts Konkretes, nur etwas,
Das mich ueberzeugt

Chorus:

Ich will, dass duuuuu mir etwas gibst von deiner Zeit
Ich will, dass du mal da bist und zwar gleich
Ich will, dass duuuuu mir etwas gibst von deiner Zeit
Ich will nur ein bisschen Aufmerksamkeit

Outro (= verse):

C9  G6  D
C9  G6  D
Bm  E  D  
F#m  G  D 

play this chord progression 2x and then:

F#m  G 
F#m  G
F#m  G
D (let ring)



Feel free to comment or correct! And don't forget to rate!

More chords by Clueso: