Cigarettes After Sex - Crush Guitar Chords

Song versions: 1 2
Chords: F, Gm, Gm7, C7, Gmaj7, C6, Cmaj7
[Intro]
F Gm x2

e|--------------------------------------------------------------|
B|--------------------------------------------------------------|
G|--------------------------------------------------------------|
D|--7-7---------------------------------------------------------|
A|------7-7-7-7-7-8-8-8---8-8-----------------------------------|
E|----------------------6---------------------------------------|

[Verse 1]
         F                                   Gm    Gm7
i wanna line my walls with photographs you sent
         F                           Gm    Gm7
of you lying in your swimsuit on the bed
        F                C7          Gm   Gm7
can't live without your love inside me now
       F                                     Gm     Gm7
i'll find a way to slip into your skin somehow

[Chorus]
         Gm              Gm7
i wanna fuck your love slow
 Gm                 Gm7
catch my heart, go swim
 Gm               Gm7
feel your lips crush
  Gm           C7       F
hold you here my loveliest friend

[Verse 2]
         F                                       Gm    Gm7
i love to watch you when you're trying on your clothes
                F                              Gm    Gm7
and now you're all i think about when i'm alone
        F                C7          Gm   Gmaj7
can't wait to feel your love inside me now
       F                                        Gm     Gm7
we'll have a drink or two and we'll go to your house...

[Chorus]
         Gm              Gm7
i wanna fuck your love slow
 Gm                 Gm7
catch my heart, go swim
 Gm               Gm7
feel your lips crush
  Gm           C7       C6
hold you here my loveliest friend

Gm F Cmaj7 x2

Solo (2:57):
e|----------------5---5----------------------------------------------|
B|--5-5-5-8-6-----------5-5-5----------------------------------------|
G|----------------------5--------------------------------------------|
D|------------------8------------------------------------------------|
A|-------------------------------------------------------------------|
E|-------------------------------------------------------------------|

[Outro]
         Gm              Gm7
i wanna fuck your love slow
 Gm                 Gm7
catch my heart, go swim
 Gm               Gm7
feel your lips crush
  Gm           C7       C6
hold you here my loveliest friend

More chords by Cigarettes After Sex: