Chris Tomlin - Greater Guitar Chords

Chris Tomlin

ccm, christian alternative rock, christian music, christian rock

Song versions: 1 2
Chords: G, D/F#, Em, C, C2, G/B, D
This is Chris Tomlin's new song greater.  There's a lot going on in the recording so correct me if
I missed anything.  

Capo 3

Start with finger picking for first verse...

e|---------------------------------------------------------------------------|
B|---------------------------------------------------------------------------|
G|-----0----0---0----0---2---2----2----2----0-----0---0---0----0---0---0---0-|
D|---------------------------------------------------------------------------|
A|----------------------------------------2----2----2---2----3---3---3---3---|
E|--3----3----3---3---2---2----2----2----------------------------------------|
    G                   D/F#             Em                 C  
From Him through        Him and to       Him are all        things, 

e|---------------------------------------------------------------------------|
B|---------------------------------------------------------------------------|
G|-----0----0----0----0----2----2---2---2----0---0--0---0---0---0--0---0-----|
D|---------------------------------------------------------------------------|
A|--2----2----2----2-----------------------3---3---3---3---3---3--3---3------|
E|-----------------------2----2---2---2---- ---------------------------------|
    Em                   D/F#              C2
to God be the            glor--------------y      (Repeat twice 2nd half of verse)


Verse:1
G                D/F#          Em          C2         Em         D/F#     C2       
From Him through Him and to Him are all things, to God be the glory
G           D/F#          Em           C2     Em          D/F#    C2
His word endures from beginning to end, to God be the glory
Em              D/F#   C2
To God be the Glory

***Here I use a pick holder called the Pik-Tik to help transition to strumming.

G                      G/B          C2
Greater is the one who lives in me
G                       C2
Greater is the love of Jesus
Em                      C2
Greater than my sin, Greater than the grave
G                        C2               D      G   C    G   C
Above all other thrones, above all other names, Greater


Verse 2:
G          D         Em        C2     Em          D/F#   C2
He was and is and forever will be, to God be the glory
G            D          Em             C       Em          D/F#       C
His power in us gives strength for the weak, to God be the glory


Bridge 2x:
C
Jesus you reign foever
D
Jesus you reign forever
G
There’s no one like you
Em                      (2nd time hold  C ) 
Jesus you reign

More chords by Chris Tomlin: