Chris Isaak - Wicked Game Guitar Chords

Chris Isaak

mellow gold

Song versions: 1 2 3 4 5 6
Chords: Bm, A, Asus4, E, Esus4
Wicked Game is a 1989 song by Chris Isaak from his third studio album Heart Shaped World. 
Atlanta radio station began playing the song and it quickly became a nationwide top ten 
hit in January 1991, reaching #6 on the Billboard Hot 100 chart, making it the first hit 
song of his career.


***   PAY ATTENTION TO THE CHORDS STRUCTURE, EASIER THE PICKING   ***


Bm 004432       
A 002220        
Asus4 002230    
E 022100        
Esus4 022200

[Intro]         


e|------------------------------------------------------------------------------------|
B|---------------—-5\b--------5--3--2--0----------------------------------------------|
G|-------------4-----------------------------------------2---1-----2---4--------------|
D|-----------------------------------------------------2---2----4---6-----------------|
A|------------------------------------------------------------------------------------|
E|------------------------------------------------------------------------------------|

              Bm (Keep the chord structure lifting the fingers needed for the changes)
e|------------2----2--------0---------------------------------------------------------|
B|------------3------3--------3------2---0--------------------------------------------|
G|------------4--------4------------------------------------2---1-----2---4-----------|
D|------------4-------------------------------------------2---2----4---6--------------|
A|------------------------------------------------------------------------------------|
E|------------------------------------------------------------------------------------|



Bm  A  Asus4  A   E  Esus4   E
The world was on fire 
Bm  A  Asus4  A   E  Esus4   E
No one could save me but you
Bm  A  Asus4  A   E  Esus4   E
Strange what desire 
Bm  A  Asus4  A   E  Esus4   E
Will make foolish people do
Bm  A  Asus4  A   E  Esus4   E
I never dreamed that I'd 
Bm  A  Asus4  A   E  Esus4   E
Meet somebody like you
Bm  A  Asus4  A   E  Esus4   E
I never dreamed that I'd 
Bm  A  Asus4  A   E  Esus4   E
Meet somebody like you


Bm  A  Asus4  A   E  Esus4   E
I don't want to fall in love 
Bm  A  Asus4  A   E  Esus4   E
(This world is only gonna break your heart)
Bm  A  Asus4  A   E  Esus4   E
I don't want to fall in love 
Bm  A  Asus4  A   E  Esus4   E
(This world is only gonna break your heart)
Bm  A  Asus4  A   E  Esus4   E
With you
Bm  A  Asus4  A   E  Esus4   E
With you 
Bm  A  Asus4  A   E  Esus4   E
(This world is only gonna break your heart)


Bm  A  Asus4  A   E  Esus4   E
What a wicked game to play
Bm  A  Asus4  A   E  Esus4   E
To make me feel this way
Bm  A  Asus4  A   E  Esus4   E
What a wicked thing to do
Bm  A  Asus4  A   E  Esus4   E
Let me dream of you
Bm  A  Asus4  A   E  Esus4   E
What a wicked thing to say
Bm  A  Asus4  A   E  Esus4   E
You never felt this way


Bm  A  Asus4  A   E  Esus4   E
What a wicked thing to do
Bm  A  Asus4  A   E  Esus4   E
To make me dream of you 
Bm  A  Asus4  A   E  Esus4   E
And I don't want to fall in love 
Bm  A  Asus4  A   E  Esus4   E
(This world is only gonna break your heart)
Bm  A  Asus4  A   E  Esus4   E
I don't want to fall in love 
Bm  A  Asus4  A   E  Esus4   E
(This world is only gonna break your heart)
Bm  A  Asus4  A   E  Esus4   E
With you
Bm  A  Asus4  A   E  Esus4   E
With you 
Bm  A  Asus4  A   E  Esus4   E
(This world is only gonna break your heart)


Bm  A  Asus4  A   E  Esus4   E
The world was on fire 
Bm  A  Asus4  A   E  Esus4   E
No one could save me but you
Bm  A  Asus4  A   E  Esus4   E
Strange what desire 
Bm  A  Asus4  A   E  Esus4   E
Will make foolish people do
Bm  A  Asus4  A   E  Esus4   E
I never dreamed that I'd 
Bm  A  Asus4  A   E  Esus4   E
Meet somebody like you
Bm  A  Asus4  A   E  Esus4   E
I never dreamed that I'd 


Bm  A  Asus4  A   E  Esus4   E
Love somebody like you
Bm  A  Asus4  A   E  Esus4   E
And I don't want to fall in love 
Bm  A  Asus4  A   E  Esus4   E
(This world is only gonna break your heart)
Bm  A  Asus4  A   E  Esus4   E
I don't want to fall in love 


Bm  A  Asus4  A   E  Esus4   E
(This world is only gonna break your heart)
Bm  A  Asus4  A   E  Esus4   E
With you
Bm  A  Asus4  A   E  Esus4   E
With you 
Bm  A  Asus4  A   E  Esus4   E
(This world is only gonna break your heart)


                                   *** Thank you for rating this song  ***

More chords by Chris Isaak: