Chris Cornell - Disappearing One Guitar Chords

Chris Cornell

alternative metal, alternative rock, grunge, post-grunge

Chords: E, E/G#, Am, Em/G, F#, F, D, Am/G, Am/F#, B7, B7/F#, C, G/B, D/F#, C/G, Fm/C, Bb
Disappearing One - Chris Cornell
Tabbed by: Per Budtz-Jørgensen
Email: budtz38@hotmail.com


[Intro]
|E    |E/G# |Am   |Em/G |F#   |F    |

[Verse]
E             E/G#  Am         Em/G
What have you done, my little spark?
F#          F            E      D      Am
Cursing my name ’cause again I put you out
E        E/G#       Am               Em/G
Falling apart, you tell yourself you are
          F#          F         E     D
Dreaming only of the ones who never dream of
Am        Am/G      Am/F#       B7
you..                         never dream of
Am        Am/G      Am/F#       B7/F#
you

C      G/B     Am     E/G#
I’m your disappearing one
C   G/B          Am        E/G#
Vanish when the curtain’s drawn
    F            D/F#      E/G#            Am  C/G
But I will come again, and you will let me in
            F          Fm/C  Bb        C   (E when chorus is repeated...)
And you’ll see I never disappear for long


Chords:
   E    E/G#   Am   Em/G   F#    F     D    Am/G  Am/F#   B7    C    G/B   D/F#
e|-0-----0-----0-----0-----2-----1-----2-----0------0-----2-----0-----3-----2--|
B|-0-----0-----1-----0-----2-----1-----3-----1------1-----4-----1-----3-----3--|
G|-1-----4-----2-----0-----3-----2-----2-----2------2-----2-----0-----0-----2--|
D|-2-----2-----2-----2-----4-----3-----0-----2------2-----4-----2-----0-----4--|
A|-2-----2-----0-----2-----4-----3-----------x------x-----2-----3-----2-----5--|
E|-0-----4-----------3-----2-----1-----------3------2-----------------------2--|

  C/G   Fm/C   Bb
e|-0-----1-----1-----|
B|-1-----1-----3-----|
G|-0-----1-----3-----|
D|-2-----3-----3-----|
A|-3-----3-----1-----|
E|-3-----------------|

More chords by Chris Cornell: