Chris Brown - Superhuman Guitar Chords

Chris Brown

dance pop, pop, pop rap, r&b

Song versions: 1 2 3 4
Chords: C, Em, D, G, F, F#
The chords (Remember to have capo on fret 1!):

      
     C              Em               D              G              F               
E|---0---------|-----0---------|-----2--------|-----0--------|-----1--------|
B|---3---------|-----3---------|-----3--------|-----3--------|-----1--------|
G|---0---------|-----0---------|-----2--------|-----0--------|-----2--------|
D|---2---------|-----2---------|-----0--------|-----0--------|-----3--------|
A|---3---------|-----2---------|--------------|-----2--------|-----3--------|
E|-------------|---------------|--------------|-----3--------|-----1--------|

     F#
E|---0----------|
B|---3----------|
G|---0----------|
D|---0----------|
A|---0----------|
E|---2----------|


[Verse]

C       G                               Em
Weak..I have been crying and crying for weeks
                                    C
How'd I survive when I could barely speak?

Barely eat?
      D
On my knees
                                   C
Well that's the moment you came to me
G                                       Em
I don't know what your love has done to me
                      C
Think I'm invincible, I see
                          D
Through the me, I used to be


[Chorus]

Em                       F#  G
You changed my whole life
                         C
Don't know what you're doing

To me, with your love
                    Em             F#
I'm feeling all superhuman you did that to me
G
A superhuman heart beats in me
C
Nothing can stop me here with you
     C
Superhuman
F
I feel so superhuman (superhuman)

I feel so superhuman

By ind1/Loperis (Youtube account!)

More chords by Chris Brown: