Chiodos - I Didnt Say I Was Powerful I Said I Was A Wizard Guitar Chords

Chiodos

emo, metalcore, post-hardcore, progressive post-hardcore

Chords: F#m, A, D, E
-------------------------------------------------------------------------------
   I Didn't Say I Was Powerful, I Said I Was A Wizard - Chiodos
-------------------------------------------------------------------------------
Tuning: Standard

I'M, WORKING ON THE LEAD/TAB PART. LEAVE YOUR CRITIQUES AND COMPLIMENTS PLEASE :)

F#m
From the moment that she left the room
A+
The album started skipping
F#m
Goodbye to beauty shared with the ones
A+
That you love
F#m                               A+
A shadow that is fallen over this town
F#m                               A+
A shadow that is fallen over this town
            F#m
Attention all of my worst critics
A+
Who were once the best of friends.
D                            A       E
You're all just crows on the power lines
F#m                  A+
Into romantic speculations,
F#m                  A+
Into romantic speculations
F#m            A+
Sightings of shape shifting
D
Disolved into the darkness.
       A                E
A final oppinion is of less value
F#m          A+            D
Than an appreciation of,
A                 E
Intolerance for obscurity.
F#m                      A+
Theatrics all made up
               D                     A                E
And pianos all playing at once through the dust.
            F#m                     A+
I found it difficult in my excitement
D
To keep from floating off
                   A             E
To keep from floating off
F#m                     A+
Into romantic speculations
F#m                     A+
Into romantic speculations
F#m            A+
Sightings of shape shifting
D
Disolved into the darkness.
               A                E
A final oppinion is of less value
F#m          A+            D
Than an appreciation of,
A               E
Intolerance for obscurity.
F#m                                          A+
A shadow that has fallen over this town
F#m                                          A+
A shadow that has fallen over this town

  |I'll rest on nests made by spiders
  |Fed on drug dosed flys
  |The spider sings alone,
  |The spider sings alone.
  |                         <---------------See bottom of page for this riff.
  |He paced the room with hurried steps
  |And placed his hands upon his head
  |As if he were afraid,
  |His thoughts were bursting from his brain.

F#m            A+
Sightings of shape shifting
D
Disolved into the darkness.
               A                E
A final oppinion is of less value
F#m          A+            D
Than an appreciation of,
A                  E
Intolerance for obscurity.

F#m            A+
Sightings of shape shifting
D
Disolved into the darkness.
               A                E
A final oppinion is of less value
F#m          A+            D
Than an appreciation of,
A                 E
Intolerance for obscurity.

Riff for the "I'll rest on nests made by spiders part"
(The part where he's singing over the piano and "A shadow that has fallen over this town")
e|-----2-------------2----------------2---------------2------------------------|
B|-----------------------------------------------------------------------------|
G|-------2-------------2-----------------2--------------2----------------------|
D|--4-------------4--------------4----------------4----------------------------|
A|-----------------------------------------------------------------------------|
E|-----------------------------------------------------------------------------|

e|--------2--------------2--------------2-----------2-----------------------------|
B|--------------------------------------------------------------------------------|
G|-----------2-------------2--------------2-----------2---------------------------|
D|---3-------------3---------------3-----------3----------------------------------|
A|--------------------------------------------------------------------------------|
E|--------------------------------------------------------------------------------|   x4

More chords by Chiodos: